18 by 5 Seconds of Summer Ukulele Chords

Posted on

If you are looking for 18 ukulele chords, you’ve visit to the right site.
You can play versatile instrument 18 using ukulele or guitar.
This song by 5 Seconds of Summer can also be played by that instruments.
=

18 chords has rhythm and included in 5 Seconds of Summer (2014) album.
You can also find another musical style, including jazz ukulele chords, country music ukulele chords, pop ukulele chords, world music ukulele chords, and rock ukulele chords here.

18 by 5 Seconds of Summer Ukulele Chords



e|------------------------------------|
B|------------2-3-2-0-----------------|
G|--------2-2---------2-----0-0-------| x4
D|----------------------4-4-----------|
A|------------------------------------|
E|------------------------------------|

OR

[Verse 1]

I wish, that I was eighteen
Do all the things you read in the magazines.
I’m not sayin’ I wanna be Charlie Sheen.


She’s just a little bit older
But, I want to get to know her.
But she says it’s already over.

[Pre-Chorus]

So tell me what else can I do?
I bought my fake ID for you.

She told me to meet her there,
I can’t afford a bus fare.

I’m not old enough for her,
I’m just waiting till I’m eighteen.


e|------------------------------------|
B|------------2-3-2-0-----------------|
G|--------2-2---------2-----0-0-------| x2
D|----------------------4-4-----------|
A|------------------------------------|
E|------------------------------------|

[Verse 2]

I think she wants to get with me
But, she’s got a job in the city.
And says that she’s always too busy.


She’s got a naughty tattoo
In a place that I wanna get to
But, my mom still drives me to school.

[Pre-Chorus]

So tell me what else can I do?
I bought my fake ID for you.

She told me to meet her there,
I can’t afford a bus fare.

I’m not old enough for her,
I’m just waiting till I’m eighteen.
You got me waiting in a queue
For a bar I can’t get into.

I’m not old enough for you,
I’m just waiting till I’m eighteen.

In my bedroom thinking of ya,
Her pictures in my private folder.
I know one day that I will hold her.
I’ll make my move when I get older,
Make my move when I get older.


e|------------------------------------|
B|------------2-3-2-0-----------------|
G|--------2-2---------2-----0-0-------| x2
D|----------------------4-4-----------|
A|------------------------------------|
E|------------------------------------|

She told me to meet her there,
I can’t afford a bus fare.

I’m not old enough for her,
I’m just waiting till I’m eighteen.
You got me waiting in a queue
For a bar I can’t get into.

I’m not old enough for you,
I’m just waiting till I’m eighteen.
I’m so sick of waiting until I’m eighteen.

To play the this songs, including 18 by 5 Seconds of Summer by ukulele, the most important basic ukulele chords to learn are C chord, D chord, G chord, and Em chord.
These set you up to play a many of songs, and each of them is easy to learn.

Leave a Reply

Your email address will not be published.