2000 Man by The Rolling Stones Ukulele Chords

Posted on

If you are looking for 2000 Man ukulele chords, you have come to the right site.
You can play versatile instrument 2000 Man using ukulele or guitar.
This song by The Rolling Stones can also be played by that instruments.
=

2000 Man chords has rhythm and included in Other Songs album.
You can also get other musical style, including jazz ukulele chords, country music ukulele chords, pop ukulele chords, world music ukulele chords, and rock ukulele chords here.

2000 Man by The Rolling Stones Ukulele Chords


-------------------------------------------------------------------------------

2000 Man – Rolling Stones


-------------------------------------------------------------------------------

Tabbed by: Neil R. Rose
Email: neil.damage.done@gmail.com

Tuning: EADGBE

This is (For the most part) the correct version (Including intro) to the original
Stones version of 2000 Man


e|--------------------------------|---------------------------------|
B|-2-3-3h5-5-5p3-5--3-2-----3-3p2-|-2-3-3h5-5-5p3-5-3-2-3h5-5-5p3-2-|
G|----------------------4-4-------|---------------------------------|
D|--------------------------------|---------------------------------|
A|--------------------------------|---------------------------------|
E|--------------------------------|---------------------------------|
e|-----2h3-3-3-3-5-3-2----3p2---|-----2h3-3-3-3-5-3-2---------|
B|-3-5-----------------5------5-|-3-5-----------------5-3-2---|
G|------------------------------|---------------------------4-|
D|------------------------------|-----------------------------|
A|------------------------------|-----------------------------|
E|------------------------------|-----------------------------|

Well my name is a number, a piece of plastic film
And I grow tiny flowers in my little window sill
Don’t you know I’m the two thous[A/Asus4]and man?
And my kids, they just don’t understand me at all

(Another verse, same chords)
( Tab from: http://www.guitartabs.cc/tabs/r/rolling_stones/2000_man_tab.html )
Oh daddy, be proud of your planet,
Oh mommy, be proud of your sun
Oh daddy, be proud of your planet
Oh mommy, be proud of your sun
D(augment this mother and pull off. Listen to song for rhythm.)
Oh daddy, is your brain still flashing
like it did when you were young?
Or did you come down crashing
seeing all the things you’d done?
Oh it’s a big put – on

Oh daddy, be proud of your planet
Oh mommy, be proud of your sun
Oh daddy, be proud of your planet
Oh mommy, be proud of your sun

And you know I’m the two thousan[A/Asus4]d man
And my kids, they just don’t understand me at all

A D E7 A (Hammer on and pull off augments on these. Again, listen to the song
for the rhythm.)

To play the most songs, including 2000 Man by The Rolling Stones by ukulele, the most crucial basic ukulele chords to learn are C chord, D chord, G chord, and Em chord.
These set you up to play a many of songs, and each of them is easy to master.

Leave a Reply

Your email address will not be published.