3 Shades of Black by Hank Williams III Ukulele Chords

Posted on

If you are looking for 3 Shades of Black ukulele chords, you’ve come to the best site.
You can play versatile instrument 3 Shades of Black using ukulele or guitar.
This song by Hank Williams III can also be played by that instruments.
=

3 Shades of Black chords has rhythm and included in Damn Right Rebel Proud (2008) album.
You can also find another musical style, including jazz ukulele chords, country music ukulele chords, pop ukulele chords, world music ukulele chords, and rock ukulele chords here.

3 Shades of Black by Hank Williams III Ukulele Chords

Year: 2007:

Intro:
Am_________________ Am____________________


E:----------------------------1------------0------------0------------0-------------|
a:---0----------------------------0h3--0---------0-------------0-------------0-----|
d:-----0h2---0h2----0h2-------------------2----2------2------2-----2------2--------|
g:--------2------2------2-----------------2----2------2------2-----2------2--------|
b:--------1------1------1-----------------1----1------1------1-----1------1--------|
e:--------0------0------0-----------------0----0------0------0-----0------0--------|

__________________________ C Am_________________


E:----0------------------------------------------------------0---------0-----|
a:---------0------------------------3---------2--------0---------0--------0--|
d:-2----2----2--0h2--0h2--oh2-----------2-------2---------2----2----2---2----|
g:-2----2----2-----2----2----2----------0-------0---------2----2----2---2----|
b:-1----1----1-----1----1----1----------1-------1---------1----1----1---1----|
e:-0----0----0-----0----0----0----------0-------0---------0----0----0---0----|

F________________________________________________________


E:-----0------------------1-------------1--------------1-----------1---------------|
a:-----------0----0-0--------3----3---------3---3--------3----3-------3----3-------|
d:--2-----2------------------3-------3------3------3-----3-------3----3---------3--|
g:--2-----2------------------2-------2------2------2-----2-------2----2---------2--|
b:--1-----1------------------1-------1------1------1-----1-------1----1---------1--|
e:--0-----0------------------1-------1------1------1-----1-------1----1---------1--|

Am___________________________________________ F____________________________


E:-------0----------0----------0-----------0------1------------1--------------1--|
a:0-----------0----------0-----------0---------------3---3--------3----3---------|
d:--2------2-----2-----2-----2----2------2----2------3------3-----3---------3----|
g:--2------2-----2-----2-----2----2------2----2------2------2-----2---------2----|
b:--1------1-----1-----1-----1----1------1----1------1------1-----1---------1----|
e:--0------0-----0-----0-----0----0------0----0------1------1-----1---------1----|

_________________________________ Am__


E:---------------1-------------------------------|
a:---3-----3----------3---3----------------------|
d:---3---------3------3------3-------2-----------|
g:---2---------2------2------2-------2-----------|
b:---1---------1------1------1-------1-----------|
e:---1---------1------1------1-------0-----------|

The intro may be a little rusty,but its pretty damn good for a
17year olds first actual Tab but i figure its going in the right direction
and the more you play it you will get the hang of it and you can twip it up a little bit
and make it sound better… and this song is a song that the faster you play it
the better it sounds…
…Lyrics and chords, i know are right on

Am: G: C: F:


E---0------ E--3---------- E------------ E--1---|
a---0------ a--2--0h3-0--- a-3--2------- A--3---|
d---2------ d--0--0------- d-2--2---2--- d--3---|
g---2------ g--0--0------- g-0--0---2--- g--2---|
b---1------ b--0--0------- b-1--1---1--- b--1---|
e---0------ e--1--1------- e-0--0---0--- e--1---|

You don’t have to learn these chords exactly like this, but if you use these riffs
in the song, it will make it sound so much better

3 shades of black is where I come from.
Depression, Misery, and Hellacious fun.
No we’re not the kind to turn our backs and run
cause 3 shades of black is where we come from.
We are a certain breed and we don’t like you.
Some are junkies some are freaks and others are everyday ghouls.
No one will ever know what we’ve been through
and we are proud in the light of the moon.

(Chorus)
3 shades of black
3 shades of black
We all like metal and Whiskey!
Livin’ Hard and chasin’ down Hell. (Non riff chord)
We’ll never give up on what we have because the darkness gives us our thrills.
(These G’s are a non riff chords)
Yeaaaaaaaahhhh! (Let ring)… Yeeeeeaaaaahyeaaaaaaaah!

3 shades of black is where I come from.
I was born in the sacrifice when I was young.
3 shades of black is what makes us strong,
and we all wear it like a uniform of chosen ones.

(Chorus)

Cause’ the darkness gives us our thrills

The intro of rough, but the chords are right.. let me know what you think
Aaron C!!

To play the most songs, including 3 Shades of Black by Hank Williams III by ukulele, the most important basic ukulele chords to learn are C chord, D chord, G chord, and Em chord.
These set you up to play a ton of songs, and each of them is easy to master.

Leave a Reply

Your email address will not be published.