A Single Moment of Sincerity by Asking Alexandria Ukulele Chords

Posted on

If you are looking for A Single Moment of Sincerity ukulele chords, you have visit to the right place.
You can play versatile instrument A Single Moment of Sincerity using ukulele or guitar.
This song by Asking Alexandria can also be played by that instruments.
=

A Single Moment of Sincerity chords has rhythm and included in Stand Up and Scream (2009) album.
You can also find other musical genres, including jazz ukulele chords, country music ukulele chords, pop ukulele chords, world music ukulele chords, and rock ukulele chords here.

A Single Moment of Sincerity by Asking Alexandria Ukulele Chords


Asking Alexandria – A single Moment Of Sincerity

Tabbed by: Andres Piantini
Email: piantino.bringme@scream.la

Tuning: Drop D

This one is my first tab, I hope that they enjoy and are grateful

Intro


e|-------------------------------------------------------|
B|-------------------------------------------------------|
G|------10-10-10------10-10-10------10-10-10------9-9-9--|
D|-000--x--x--x--000--x--x--x--000--x--x--x--000--x-x-x--|
A|-000--8--8--8--000--8--8--8--000--8--8--8--000--7-7-7--|
D|-000-----------000-----------000-----------000---------|
e|------------------------------------------------------------------|
B|------------------------------------------------------------------|
G|------14-14-14--------14-14-14-------14-14-14-------12-12-12------|
D|-000---x--x--x---000---x--x--x--000---x--x--x--000---x--x--x------|
A|-000--12-12-12---000--12-12-12--000--12-12-12--000--10-10-10----0-|
D|-000-------------000------------000------------000--------------0-|

Breakdown


e|--------------------------------------------|
B|--------------------------------------------|
G|--------------------------------------------|
D|-0--0-0000--00--00-000-0--0-0000-00--00-000-|
A|-0--0-0000--00--00-000-0--0-0000-00--00-000-|
D|-0--0-0000--00--00-000-0--0-0000-00--00-000-|

e|--------------------------------|
B|--------------------------------|
G|--------------------------------|
D|-0--0--0000--00-0-000-0--0-0000-|
A|-0--0--0000--00-0-000-0--0-0000-|
D|-1--1--1111--11-1-111-1--1-1111-|

e|---------------------------------------------------------|
B|---------------------------------------------------------|
G|---------------------------------------------------------|
D|-000-000-0--0-0000--00--00-000-0--0--0000--00--00-000--0-|
A|-000-000-0--0-0000--00--00-000-0--0--0000--00--00-000--0-|
D|-111-111-0--0-0000--00--00-000-0--0--0000--00--00-000--0-|

Verse


e|---------------------------------------------------------------------|
B|---------------------------------------------------------------------|
G|---------------------------------------------------------------------|
D|----------------------------------------3-5-7-5--3-5-7-5--3-5-7-5--0-|
A|-5-7-8-7---5-7-8-7---5-7-8-7-8-10-8-7------------------------------0-|
D|--0-0-0--0--0-0-0--0--0-0-0-0-0--0-0-----0-0-0----0-0-0----0-0-0---0-|


e|-------------------------------------------------------------------|
B|-------------------------------------------------------------------|
G|-------------------------------------------------------------------|
D|----------------------------------------------------------------|
A|-5p0p7p0p8p0p7p0p5p0p7p0--000000----5-0-7-0-8-0-7-0--7h8-7h8-------|
D|--------------------------000000------------------------0---0------|


e|----------------------------------------------------------------|
B|----------------------------------------------------------------|
G|----------------------------------------------------------------|
D|-3-0-5-0-7-0-5-0-3-0-5----------3-0-5-0-7-0-5-0--5h7--5h7----|
A|------------------------000000----------------------------------|
D|------------------------000000----------------------0----0------|


e|---------------------------------------------------------------------|
B|----------------------------5-5----------------------5-5----------12-|
G|----------------------------8-8-5-0-----7-0----------8-8-5-0------15-|
D|------------------------------------7-8---------------------7-8------|
A|-000-000-000-000-000-7h8--0-----------------000-7h8-0----------------|
D|-000-000-000-000-000------0-----------------000-----0----------------|

x2


e|----------------------------------------------|-------------|
B|-----------5-5------------------------5-5-----|----------12-|
G|-----------8-8-5-0-----7-0------------8-8-----|-5-0------15-|
D|-------------------7-8------------------------|-----7-8-----|
A|-000-7h8-0-----------------000-7h8-0----------|-------------|
D|-000-----0-----------------000-----0----------|-------------|


e|--------------------------------------------------------|
B|-----------5-5------------------------5-5-----------12--|
G|-----------8-8-5-0-----7-0------------8-8--5-0------15--|
D|-------------------7-8-------------------------7-8------|
A|-000-7h8-0------------------000-7h8-0-------------------|
D|-000-----0------------------000-----0-------------------|


e|-------------------------------------------------------------------|
B|-------------------------------------------------------------------|
G|--------------5-0-7-0-7h8-7------------7h10p7-6h9p6-7h10p7-9h12p9--|
D|-------------------------------------------------------------------|
A|-00000-00000----------------0-00000--0-----------------------------|
D|-00000-00000----------------0-00000--0-----------------------------|

x2


e|-------------------------------------|--------------------------------|
B|-------------------------------------|--------------------------------|
G|--------------5-0-7-0-7h8-7----------|-----7h10p7-6h9p6-7h10p7-9h12p9-|
D|-------------------------------------|--------------------------------|
A|-00000-00000----------------0-00000--|--0-----------------------------|
D|-00000-00000----------------0-00000--|--0-----------------------------|


e|-------------------------------------|
B|-------------------------------------|
G|--------------5-0-7-0-7h8-7----------|
D|-------------------------------------|
A|-00000-00000----------------0-00000--|
D|-00000-00000----------------0-00000--|

Chourus


e|-------------------------------------------------------------|
B|-------------------------------------------------------------|
G|---x16----x16------------------------------------------------|
D|-8-----10----------------------------------------------------|
A|-8-----10--------7h8-8p7-7h8-8p7-7h8----7h8-8p7-7h8-8p7-7h8--|
D|-8-----10-----000---0---0---0---0----000---0---0---0---0-----|


e|-----------------------------------------------------------|
B|-----------------------------------------------------------|
G|---x16----x16----------------------------------------------|
D|-8-----10--------5h7-7p5-5h7-7p5-5h7----5h7-7p5-5h7-7p5----|
A|-8-----10--------------------------------------------------|
D|-8-----10-----000---0---0---0---0----000---0---0---0---0---|


e|----------------------------------5h7h8-------------------5h7h8--|
B|----------------------4h6h7-------------------4h6h7--------------|
G|---x16---x16----5h7h8-------5h7h8-------5h7h8-------5h7h8--------|
D|-8----10---------------------------------------------------------|
A|-8----10---------------------------------------------------------|
D|-8----10---------------------------------------------------------|
e|------------------------|
B|------------------------|
G|---x16----x16-----------|
D|-8-----10---------------|
A|-8-----10-----0---00----|
D|-8-----10-----0---00----|

Breakdown


e|-------------------------------------------------------------|
B|-------------------------------------------------------------|
G|-------------------------------------------------------------|
D|-------------------------------------------------------------|
A|-00-00-00-00-0--0000-0000-0000-0000-00-00-00-00-0--0000-0000-|
D|-00-00-00-00-0--0000-0000-0000-0000-00-00-00-00-0--0000-0000-|


e|--------------------------------------------------------------------|
B|--------------------------------------------------------------------|
G|--------------------------------------------------------------------|
D|---------------------------------------------------------------12--|
A|-00-00-00-00-0--0000-0000-0000-0000-00-00-00-00-0--0000-0000---12--|
D|-00-00-00-00-0--0000-0000-0000-0000-00-00-00-00-0--0000-0000---12--|


e|--------------------------------------------------------------|
B|--------------------------------------------------------------|
G|--------------------------------------------------------------|
D|--------------------------------------------------------------|
A|-00-00-00-00-0--0000-0000-0000-0000-00-00-00-00-0--0000-0000--|
D|-00-00-00-00-0--0000-0000-0000-0000-00-00-00-00-0--0000-0000--|


e|---------------------------------------------------|
B|---------------------------------------------------|
G|---------------------------------------------------|
D|---------------------------------------------------|
A|-00-00-00-00-0--0000-0000-0000-0000-00-00-00-00-0--|
D|-00-00-00-00-0--0000-0000-0000-0000-00-00-00-00-0--|

e|--------------------------|
B|--------------------------|
G|--------------------------|
D|--------------------------|
A|-0000-0000-0000-0000-0000-|
D|-0000-0000-0000-0000-0000-|

END

| / slide up
| slide down
| palm mute
| ^ bent note
| ~ vibrato
| () natural armonic
| h Hammer on
| p Pull-of

To play the most songs, including A Single Moment of Sincerity by Asking Alexandria by ukulele, the most important basic ukulele chords to learn are C chord, D chord, G chord, and Em chord.
These set you up to play a a lot of songs, and each of them is easy to learn.

Gravatar Image
Like to play Ukulele and Sudoku Game

Leave a Reply

Your email address will not be published. Required fields are marked *