Ai No Uta by Do As Infinity Ukulele Chords

Posted on

If you are searching for Ai No Uta ukulele chords, you’ve visit to the right place.
You can play versatile instrument Ai No Uta using ukulele or guitar.
This song by Do As Infinity can also be played by that instruments.
=

Ai No Uta chords has rhythm and included in album.
You can also get other musical genres, including jazz ukulele chords, country music ukulele chords, pop ukulele chords, world music ukulele chords, and rock ukulele chords here.

Ai No Uta by Do As Infinity Ukulele Chords


-------------------------------------------------------------------------------

Ai No Uta – Do As Infinity


-------------------------------------------------------------------------------

Tabbed by:
Email: sofaraway55@hotmail.com

My first tab. It?s gonna take a while to figure out the solo, so e-mail me if
you figure it out or find it somewhere before I do. I got the chords from a
site on 911tabs, so comment if any of them are wrong.

Tuning: EADGBe

EADGBe
D XX0232
E 022100
C#m X46654
F#m 244222
B X24442
C# X46664
Bbm/A#m X13321
Fm 133111

(6 bar rest, play only w/first violin round)
Q E E E E Q E E E E Q. E Q. E Q. E^^^Q Q E Q. Q. E E E Q E H.^E


e|-0-0-0-------|--------------|-----------|---------|------------|-----------|
B|-------3-2-3-|-3-3-2-0-2--3-|-2---------|---------|----0-2-0---|-0---------|
G|-------------|--------------|----2------|---------|-2--------2-|---2-------|
D|-------------|--------------|------2--2-|---2-2-4-|------------|-----------|
A|-------------|--------------|-----------|---------|------------|-----------|
E|-------------|--------------|-----------|---------|------------|-----------|

Intro. (Right after the first violin round)
D (Q)(Q) E (Q)(Q) C#m (Q)(Q) D (Q)(Q) D (Q)(Q) E (Q)(Q) F#m (Q)(Q)(Q)(Q) X2

Verse 1
Atarashii asa wo mukaetara
ookiku te wo hiroge shinkokyuu
Kinou no kanashii namida wo
taiyou wa wasuresasete kureru

Chorus
Kondo aeru hi made
kitto iroiro aru ne
Demo ne sore wa
sore de hitsuyou na koto desu
Ippai naitari mo shite
Yatto egao no imi ga
Wakaru you ni nareba
kowai mono nashi da

Chorus (w/above lyrics)
_ . _ .
Q Q Q Q Q Q E E E E Q Q Q Q Q Q Q Q Q Q Q Q


e|-9----14----|-13----13-14-13-14-|-9----14----|-13----16----|-9----14-------|
B|---11----11-|----11-------------|---11----11-|----11----11-|---11----11----|
G|------------|-------------------|------------|-------------|---------------|
D|------------|-------------------|------------|-------------|---------------|
A|------------|-------------------|------------|-------------|---------------|
E|------------|-------------------|------------|-------------|---------------|

_ . _ . _ . _ . _ .
Q Q E E E E Q Q Q Q E E E E E E Q (X2)


e|-13----13-14-13-14-|-13----14----|-13-14-13-14-13-14-16--------------------|
B|----11-------------|----11----11-|-----------------------------------------|
G|-------------------|-------------|-----------------------------------------|
D|-------------------|-------------|-----------------------------------------|
A|-------------------|-------------|-----------------------------------------|
E|-------------------|-------------|-----------------------------------------|

Sou toku kara
arata na SUTAATO da!!

D (Q)(Q) E (Q)(Q) C#m (Q)(Q) D (Q)(Q) D (Q)(Q) E (Q)(Q) F#m (Q)(Q)(Q)(Q) X2

Verse 2
Sannenmae to ima
kuraberu yori
Juunen saki no koto
IMEEJI shitai
Nantona_ku sae nai mainichi mo
Ashita ni
tsunagatte iru kara

Chorus 2
Kondo aeru hi made
yakusoku wa nai kedo
Demo ne sore wa sore de
shou ga nai koto na’n desu
Ippai butsukariatte
han’ninmae no boku ga
Kimi ni yuiitsu dekiru koto wa tada hitotsu

Chorus 2
_ . _ .
Q Q Q Q Q Q E E E E Q Q Q Q Q Q Q Q Q Q Q Q


e|-9----14----|-13----13-14-13-14-|-9----14----|-13----16----|-9----14-------|
B|---11----11-|----11-------------|---11----11-|----11----11-|---11----11----|
G|------------|-------------------|------------|-------------|---------------|
D|------------|-------------------|------------|-------------|---------------|
A|------------|-------------------|------------|-------------|---------------|
E|------------|-------------------|------------|-------------|---------------|

_ . _ . _ . _ . _ .
Q Q E E E E Q Q Q Q E E E E E E Q (X2)


e|-13----13-14-13-14-|-13----14----|-13-14-13-14-13-14-16--------------------|
B|----11-------------|----11----11-|-----------------------------------------|
G|-------------------|-------------|-----------------------------------------|
D|-------------------|-------------|-----------------------------------------|
A|-------------------|-------------|-----------------------------------------|
E|-------------------|-------------|-----------------------------------------|

Kono ai no uta todokeru koto dake

(Solo)

Chorus 3
Itsumo donna toki mo
kimi no egao o misete
Datte sore ga boku no
takaramono na’n desu

Kondo aeru hi made
yakusoku wa nai kedo
Demo ne sore wa sore de
taisetsu na koto desu
Ippai naitari mo shite
Yatto egao no imi ga
Wakaru you ni nareba
kowai mono nashi da

Chorus 3
_ . _ .
Q Q Q Q Q Q E E E E Q Q Q Q Q Q Q Q Q Q Q Q


e|-9----14----|-13----13-14-13-14-|-9----14----|-13----16----|-9----14-------|
B|---11----11-|----11-------------|---11----11-|----11----11-|---11----11----|
G|------------|-------------------|------------|-------------|---------------|
D|------------|-------------------|------------|-------------|---------------|
A|------------|-------------------|------------|-------------|---------------|
E|------------|-------------------|------------|-------------|---------------|

_ . _ . _ . _ . _ .
Q Q E E E E Q Q Q Q E E E E E E Q (X3)


e|-13----13-14-13-14-|-13----14----|-13-14-13-14-13-14-16--------------------|
B|----11-------------|----11----11-|-----------------------------------------|
G|-------------------|-------------|-----------------------------------------|
D|-------------------|-------------|-----------------------------------------|
A|-------------------|-------------|-----------------------------------------|
E|-------------------|-------------|-----------------------------------------|

Sou toku kara
arata na SUTAATO da!!

D (Q)(Q) E (Q)(Q) C#m (Q)(Q) D (Q)(Q) D (Q)(Q) E (Q)(Q) F#m (Q)(Q)(Q)(Q) X2
(6 bar rest, play only w/second violin round this time, rit.)
Q E E E E Q E E E E Q. E Q. E Q. E^^^Q Q E Q. Q. E E E Q E E^H.^^^^


e|-0-0-0-------|--------------|-----------|---------|------------|-----------|
B|-------3-2-3-|-3-3-2-0-2--3-|-2---------|---------|----0-2-0---|-0---------|
G|-------------|--------------|----2------|---------|-2--------2-|---2-------|
D|-------------|--------------|------2--2-|---2-2-4-|------------|-----------|
A|-------------|--------------|-----------|---------|------------|-----------|
E|-------------|--------------|-----------|---------|------------|-----------|

^^^W A (H) YOU MUST PLAY IT LIKE THIS OR THE LAST CHORD WILL SUFFER


e|-------------|-5-----------------------------------------------------------|
B|-------------|-5-----------------------------------------------------------|
G|-------------|-6-----------------------------------------------------------|
D|-------------|-7-----------------------------------------------------------|
A|-------------|-7-----------------------------------------------------------|
E|-------------|-5-----------------------------------------------------------|

| W whole note
| H half note
| Q quarter note
| E eighth note
| S sixteenth note
| T thirty-second note
| _. swung eighth notes
| H. 3 beats
| Q. 1 1/2 beats
E. 3/4 beat, etc.

| / slide up
| slide down
| h hammer-on
| p pull-off
| ~ vibrato
| + harmonic
| x Mute note

To play the most songs, including Ai No Uta by Do As Infinity by ukulele, the most crucial basic ukulele chords to learn are C chord, D chord, G chord, and Em chord.
These set you up to play a ton of songs, and each of them is easy to learn.

Leave a Reply

Your email address will not be published.