All Dead, All Dead by Queen Ukulele Chords

Posted on

If you are looking for All Dead, All Dead ukulele chords, you have visit to the best site.
You can play versatile instrument All Dead, All Dead using ukulele or guitar.
This song by Queen can also be played by that instruments.
=

All Dead, All Dead chords has rhythm and included in News of the World (1977) album.
You can also get another musical genres, including jazz ukulele chords, country music ukulele chords, pop ukulele chords, world music ukulele chords, and rock ukulele chords here.

All Dead, All Dead by Queen Ukulele Chords

Intro:

e|---0/-----0-1-/----0-1--/-----------------/----/-/-/----|
B|--1-/---3-----/---1-----/---1----1-3------/----/-/-/----|
G|-2--/--3------/--2------/--0---3-------0-3/---2/2/0/---0|
D|3---/-3------3/-3------3/-0--0-------0----/--3-/2/0/--5-|
A|----/1--------/0--------/-----------------/-3--/3/1/-4--|
E|----/---------/---------/3----------------/1---/0/3/6---|

She came wit – hout a farthing
A babe wit – hout a name
So much a – do ’bout nothing
Is [Bb/G] what she’s [Bb/A] try to say
So much a – do my lover
So many games we played
Through ev’ry fleeted summer
Through [Bb/G] ev’ry [Bb/A] pre – cious day

Chorus:
C/E F Gm F/A f
All dead all dead
All the dreams we had
And I wonder [C/E] why I still live on

A|-1-3-5

C/E F Gm F/A f
All dead all dead
And a – lone I’m spared
My sweeter half in – stead
All dead and gone all [Bb/F] dead

Break:


Dm - A - Dm - A - Dm - C - F - Bb/G - Bb/A - Ai - Dm

Chorus:
C/E F Gm F/A f
All dead all dead
At the rain – bow’s end
And still I [C/E] hear her own sweet song

A|-1-3-5

C/E F Gm F/A f
All dead all dead
Take me back a – gain
You know my little friend’s
All dead and gone

Solo:


e|0-1-3-0/1-3-5-1/0-1-3-0/1-3-5--1/----/---3--5--6--6--5--5--3--1/
B|2-3-5-2/3-5-6-3/2-3-5-2/3-5-6--1/3--5/6--3--6--6--8--6--5--3--2/
G|-------/-------/-------/2-6-7--2/3--3/5--3--5--7--5--5--5--3--2/
D|2-3-5-2/3-5-7-3/2-3-5-2/0-0-0--3/3--5/7--5--7--8--5--7--7--5---/
A|0-0-0-0/0-0-0-0/0-0-0-0/-------3/1--3/8-----------7--8--7--5--0/
E|-------/-------/-------/-------1/----/-------------------------/

Her ways are always with me
I wonder all the while
But please you must for – give me
I am [Bb/G] old but [Bb/A] still a child

Chorus:
C/E F Gm F/A f
All dead all dead
But I should not grieve/
In [-] time it [-] comes to [-] ev’ – [-] ry – one

A|-1-3-5

C/E F Gm F/A f
All dead all dead
But in hope I breathe
Of course I don’t be – lieve
You’re dead and gone
All [Bb/F] dead and gone//

To play the most songs, including All Dead, All Dead by Queen by ukulele, the most important basic ukulele chords to learn are C chord, D chord, G chord, and Em chord.
These set you up to play a many of songs, and each of them is easy to learn.

Gravatar Image
Like to play Ukulele and Sudoku Game

Leave a Reply

Your email address will not be published.