All the Way Live by Thousand Foot Krutch Ukulele Chords

Posted on

If you are searching for All the Way Live ukulele chords, you already visit to the best place.
You can play versatile instrument All the Way Live using ukulele or guitar.
This song by Thousand Foot Krutch can also be played by that instruments.
=

All the Way Live chords has rhythm and included in Set It Off (2000) album.
You can also get other musical style, including jazz ukulele chords, country music ukulele chords, pop ukulele chords, world music ukulele chords, and rock ukulele chords here.

All the Way Live by Thousand Foot Krutch Ukulele Chords

Set it Off
(c)2000 DJD Music Group
Comments? Questions?
Rude Remarks? Email: Thomas(eastcoastpunk66@poppunk.com)

Riff 1 3x (1x) 1x


e[-----------------------------] [--------------] [----7---------]
b[-----------------------------] [--------------] [----9---------]
g[-----------------------------] [--------------] [----7---------]
d[-----------------------------] [--------------] [----9---------]
a[7-5-4-5--------------7-5-4-5-] [7-7-9-9-7b9b7-] [----7---------]
e[--------4-5-7-5-4-0---------- -------------- --------------]

Riff 2


e[-----------------------------------------------------------]
b[-----9-9-----9-9-----9-------------------------------------]
g[-----7-7-----7-7-----7-------------------------------------]
d[-----9-9-----9-9-----9-------------------------------------]
a[-x-x-7-7-x-x-7-7-x-x-7-------------------------------------]
e[-0-0-----0-0-----0-0---------------------------------------]

Riff 3 Riff 4


e[------------------------------------] [----------------------]
b[------------------------------------] [----------------------]
g[------------------------------------ -----------7(harmonic)]
d[-2-2-x-x-2-2-x-x-2-2-x-x-5-5-------- -2-2------------------]
a[-2-2-x-x-2-2-x-x-2-2-x-x-5-5-4-5-7-- -2-2------------------]
e[-0-0-x-x-0-0-x-x-0-0-x-x-3-3-------- -0-0------------------]

The Part between the two heavier riffs I can’t hear well enough
to tab, but they are in that same scale as the first riff.

To play the this songs, including All the Way Live by Thousand Foot Krutch by ukulele, the most important basic ukulele chords to learn are C chord, D chord, G chord, and Em chord.
These set you up to play a a lot of songs, and each of them is easy to master.

Leave a Reply

Your email address will not be published.