Anything by Sixpence None the Richer Ukulele Chords

Posted on

If you are looking for Anything ukulele chords, you already visit to the right site.
You can play versatile instrument Anything using ukulele or guitar.
This song by Sixpence None the Richer can also be played by that instruments.
=

Anything chords has rhythm and included in Sixpence None the Richer (1997) album.
You can also get another musical style, including jazz ukulele chords, country music ukulele chords, pop ukulele chords, world music ukulele chords, and rock ukulele chords here.

Anything by Sixpence None the Richer Ukulele Chords


------------------------------------------------------------

Anything
by: Sixpence None the Richer
CD: Sixpence None the Richer
lyrics: Matt Slocum
music: Matt Slocum
transcribed by: mred@iastate.edu (Josh Prins)
copyright: (C) 1997 Le Tigre Sur un Balloon Publishing
(ASCAP)/Squint Songs (ASCAP)


------------------------------------------------------------

D Dmaj7 G G/E Gmaj7/E D6

xx7775 xx7675 320033 020033 020002 x00202

C Cm Am Bm7 Em Dsus

xx5553 xx5543 xx7555 xx4445 xx5453 x00233

Em6 Em7 Eb F#dim Fm6 G

xx2423 010000 xx5343 xx1212 x03534 xx5433

Gthing:


3-3-3-3-3-3-3-3-3-3-3-3-3-3-2-2-
3-3-3-3-3-3-3-3-3-3-3-3-3-3-0-0-
0-0-0-0-0-0-0-0-0-0-0-0-0-0-0-0-
0-0-0-0-0-0-0-0-0-0-0-0-0-0-0-0-
2-2-2-2-2-2-2-0-2-2-2-2-2-2-2-2-
3-3-3-3-3-3-3-3-0-0-0-0-0-0-0-0-

[(G)] [(G/E)] [(Gmaj7/E)]

Verse A:
D Dmaj7 Gthing
D Dmaj7 Gthing
D Dmaj7 Gthing
D Dmaj7 G G/E

Verse B:
tab


------------------0-----0---------0---------------0-----0-------
2---0---0---0---1---3-----3-----2---0---0---0---1---3-----3-----
--0---0---0---0-------0-----0---------0---0---0-------0-----0---
------------------------------0-------------------------------0-
----------------------------------------------------------------
----------------------------------------------------------------


--0---------------0-3-3-2-2-2-2-
2---0---0---0---1---3-3-3-3-3-3-
------0---0---0-----0-0-2-2-2-2-
--------------------0-0-0-0-0-0-
--------------------2-2-0-0-0-0-
--------------------3-3---------

Chorus:

G D6 C Cm G D
G D6 C Cm G
C Cm G

VERSE A

VERSE B

CHORUS

Bridge:
D Dmaj7 Am Bm7
Em Dsus Em6 Em7

Chorus 2:
G D6 C Cm G D
G D6 C Cm G
G D6 C Cm
G D6 C Cm G
C Cm G
C Cm G

Ending:
Eb F#dim Fm6 G (these are my best guess)
Eb F#dim Fm6 G

tab for bridge solo:


----------------------------------------------------------------
--------7-5---5---7-----7-5---5---7-----7-5---5---4---5---7---8-
------------7---------------7-----------------------------------
--------------------7-7-----------------------------------------
----------------------------------------------------------------
----------------------------------------------------------------


----------------------------------------------------------------
--------8-7-5-7---8-----8-7-5-7---8---------------5---5---5---8-
--------------------------------------6-------------------------
--9-9-9-------------9-9-----------------------------------------
----------------------------------------------------------------
----------------------------------------------------------------

(here I lose track of the guitar and tab the string melody)


----------------------------------------------------------------
7-8-7-8-7-5---5---------------8-7-8-7-8-7-5---5---5-----------8-
------------7-------------------------------7-------------------
----------------------------------------------------------------
----------------------------------------------------------------
----------------------------------------------------------------


------------------------7-5------
7-8-7-8-7-5---5-------------8-7-8
------------7---5-4--------------
--------------------7-5----------
---------------------------------
---------------------------------

this is the tab for the ending part:


------------------------------------------------------
------------------------------------------------------
------------------------------------------------------
----0-5-----3-----5-----5-7-5-4-----------------------
2-3---------------------------------6-----5-------4-5-
------------------------------------------------------


------------------------------------------
------------------------------------------
--------------------3---------------------
6-----6-----6--6--6-----5-----------------
------------------------------------------
------------------------------------------

repeat

Josh Prins
mred@iastate.edu

To play the most songs, including Anything by Sixpence None the Richer by ukulele, the most crucial basic ukulele chords to learn are C chord, D chord, G chord, and Em chord.
These set you up to play a many of songs, and each of them is easy to learn.

Leave a Reply

Your email address will not be published.