Aphrodite by Nebula Ukulele Chords

Posted on

If you are looking for Aphrodite ukulele chords, you already come to the right site.
You can play versatile instrument Aphrodite using ukulele or guitar.
This song by Nebula can also be played by that instruments.
=

Aphrodite chords has rhythm and included in Heavy Psych (2009) album.
You can also get another musical style, including jazz ukulele chords, country music ukulele chords, pop ukulele chords, world music ukulele chords, and rock ukulele chords here.

Aphrodite by Nebula Ukulele Chords

Artist – Nebula
Song- Aphrodite
Album- Heavy Psych
Tuning-Whole step down (Dgcfad)
Distortion: Use a Fuzz
Tabbed by: Martin B. (Martin_Banik@gmx.de)

h-Hammer on
p-pulloff
/-slide
x-Mute/dead note
b-Bend
rb-release bend
~-vibrato
.-palm muted

Annotations:
-listen to the song to get the timing
-i’ve only tabbed the rhythm guitar
-key: Bb-blues

Intro/Verse


D|---------------|----xx--------------|
A|---------------|----xx--------------|
F|----10/1110-8-|----xx-10/1110-8---|
C|-10-10/1110-8-|-10-xx-10/1110-8-8-|
G|-10-8-/9-8--6-|-10-xx-8-/9-8--6-8-|
D|-8-------------|-8--xx------------6-|

Intro-Bendings
[+]


D|---------------|------------------|-------|
A|-8-------11----|-13------11-------|-8-----|
F|-10b12---13b15-|-15b17---13b15----|-10b12-|
C|---------------|------------------|-------|
G|---------------|------------------|-------|
D|---------------|------------------|-------|

Bridge/Chorus


D|-------------|---------|------------------|----------------------|
A|-------------|---------|------------------|----------------------|
F|-------------|---------|------8---------8-|---------8----------8-|
C|-66-66-66-66-|-66-66-7-|------8-108-10-8-|-108-10-8--108-10-8-|
G|-66-66-66-66-|-66-66-7-|-1010-6-108-10-6-|-108-10-6--108-10-6-|
D|-44-44-44-44-|-44-44-5-|-8-8----8-6-8----|-8-6-8-----8-6-8----|
D|-------------|---------|
A|-------------|---------|
F|-------------|-----8---|
C|-66-66-66-66-|-8---8-8-|
G|-66-66-66-66-|-8---6-8-|
D|-44-44-44-44-|-6-----6-|

Structure:

Intro/Verse
Bridge/Chorus
Intro/Verse
Bridge/Chorus

To play the most songs, including Aphrodite by Nebula by ukulele, the most crucial basic ukulele chords to learn are C chord, D chord, G chord, and Em chord.
These set you up to play a many of songs, and each of them is easy to learn.

Leave a Reply

Your email address will not be published.