Arlene by The Handsome Family Ukulele Chords

Posted on

If you are searching for Arlene ukulele chords, you have visit to the best place.
You can play versatile instrument Arlene using ukulele or guitar.
This song by The Handsome Family can also be played by that instruments.
=

Arlene chords has rhythm and included in Odessa (1995) album.
You can also find other musical style, including jazz ukulele chords, country music ukulele chords, pop ukulele chords, world music ukulele chords, and rock ukulele chords here.

Arlene by The Handsome Family Ukulele Chords

Arlene
From the album Odessa


|------------------------------------------2-|
|------------------------------------------3-|
|------------------------------------------2-|
|-------4-7-4-------------4----------------0-|
|-5-7-5--------7-----5-7----7b5---5-2--------|
|-------------------------------------5-2----|

Arlene, I’m sorry for what I done,
I wasn’t looking for love ’til I saw your red hair in the sun
What we had could ne’er be love, that was easy to see,
But when I saw you in Red’s pouring coffee, something took a-hold of me

Oh-wo-oo-oh, Arlene, you wouldn’t even let me hold your hand
When I stopped you in the road, you just screamed and ran


|-2--2--2-0-2h3-2--0-0----------------2-----------------------------------------|
|----------------------3--3--3-2--2---2----2-2h3p2------------10-------10--8--7-|
|-------------------------------------2------------5-5/12--12----12----11--9--7-|
|-------------------------------------4-----------------------------------------|
|-------------------------------------4-----------------------------------------|
|-------------------------------------2-----------------------------------------|


|------------------------------------------2------------------------------------|
|------------------------------------------2------------------------------------|
|----------------4-------------------------2---------------------2--------------|
|------------------7-----------------------4-------------------5---5-------2b---|
|-----5-7-5-7b-------7b--5---5-7-5-5--4-4--4----4--4h5p4--3--5---------2-5----5-|
|-5-7----------------------------------------------------------------3----------|

Oh-wo-oo-oh, Arlene, you wouldn’t even let me hold your hand
When I stopped you in the road, you just screamed and ran

That night, I decided that I was gonna marry you
My knife went through your screen door and I went away with you
You were singing, “Please let me go,” all the way down to Miller’s Cave
When I picked a stick up off the ground, you cried, “I ain’t ready for my grave!”

But, Arlene, in the dark, your hair’s just as red,
And this long, dark cave will always be our wedding bed
But, Arlene, in the dark, your hair’s just as red,
And this long, dark cave will always be our wedding bed

To play the most songs, including Arlene by The Handsome Family by ukulele, the most crucial basic ukulele chords to learn are C chord, D chord, G chord, and Em chord.
These set you up to play a a lot of songs, and each of them is easy to learn.

Gravatar Image
Like to play Ukulele and Sudoku Game

Leave a Reply

Your email address will not be published.