Arrows by Evening Hymns Ukulele Chords

Posted on

If you are searching for Arrows ukulele chords, you have visit to the best place.
You can play versatile instrument Arrows using ukulele or guitar.
This song by Evening Hymns can also be played by that instruments.
=

Arrows chords has rhythm and included in Spectral Dusk (2012) album.
You can also get another musical style, including jazz ukulele chords, country music ukulele chords, pop ukulele chords, world music ukulele chords, and rock ukulele chords here.

Arrows by Evening Hymns Ukulele Chords


-------------------------------------------------------------------------------

ARROWS (Acoustic) – Evening Hymns


-------------------------------------------------------------------------------

Tabbed by: k8mc
E-mail: x_k8_xx(at)yahoo(dot)co(dot)uk

Tuning: standard

CAPO 3

based on this cardinal sessions vid: http://www.youtube.com/watch?vWh5QycStLn8

INTRO


e|----------------------------------------------------------------|
B|--------------0---------------------------0-----0h1-------0-----|
G|------0---------------0---0---0-------0-------0-------0-------0-|
D|----------------------------------------------------------------|
A|----2-------2-------2-------2p0-----2-------2-------2-------2---| x2
E|0-------0-------0-------0-------3-------3-------3-------3-------|

VERSE PART 1


e|----------------------------------------------------------------|
B|----------0---------------0---------------0-----0h1-------0-----|
G|------0-------0-------0-------0-------0-------0-------0-------0-|
D|----------------------------------------------------------------|
A|----2-------2-------2-------2p0-----2-------2-------2-------2---| x2
E|0-------0-------0-------0-------3-------3-------3-------3-------|

VERSE PART 2


e|----------------------------------------------------------------|
B|1---------1-----0---------0-----1---------1-----1---------1-----|
G|------0-------0-------0-------0-------0-------0-------0-------0-|
D|----2-------2-----------------------2-------2-------2-------2---|
A|3-------3-----------2-------2---3-------3-------3-------3-------|
E|----------------3-------3---------------------------------------|


e|----------------------------------------------------------------|
B|----------1-----1---------1-----0---------0-----1---------1-----|
G|------0-------0-------0-------0-------0-------0-------0-------0-|
D|----2-------2-------2-------2-----------------------2-------2---|
A|3-------3-------3-------3-----------2-------2---3-------3-------|
E|--------------------------------3-------3-----------------------|
e|----------------|
B|----------1--p0-|
G|------0-------0-|
D|----2-------2---|
A|3-------3-------| } first verse only
E|----------------|


e|--------------------------------|
B|0---------0---------------0-----|
G|------0-------0-------0-------0-|
D|--------------------------------|
A|----2-------2-------2-------2---| } second verse onwards
E|3-------3-------3-------3-------|

repeat verse

CHORUS


e|----------------------------------------------------------------|
B|1---------1---------------1-----0---------0---------------0-----|
G|------0-------0-------0-------0-------0-------0-------0-------0-|
D|----2-------2-------2-------2-----------------------------------|
A|3-------3-------3-------3-----------2-------2-------2-------2---| x2
E|--------------------------------0-------0-------0-------0-------|


e|----------------------------------------------------------------|
B|0---------0-----0---------0-----1---------1-----0---------0-----|
G|------0-------0-------0-------0-------0-------0-------0-------0-|
D|------------------------------------2-------2-------------------|
A|----2-------2-------2-------2---3-------3-----------2-------2---|
E|0-------0-------3-------3-----------------------3-------3-------|


e|----------------------------------------------------------------|
B|----------0---------------------1---------1---------------1--p0-|
G|------0-------0-------0-------0-------0-------0-------0-------0-|
D|------------------------------------2-------2-------2-------2---|
A|----2-------2-------2-------2---3-------3-------3-------3-------|
E|3-------3-------3-------0---------------------------------------|

whole thing repeats once

Lyrics:

How long must I stare into this window?
How long ’til I see the things I need?
‘Cause I’ve been looking now for days
Hoping that I’d cross your gaze
And see myself inside your weary eyes.

How long must I sing these songs of sorrow?
What’s the trick to get the darkness out?
‘Cause I’ve been singing now for hours
Hoping for some special powers
Teach me all the things that I can do to bring you back

I sing these hymns to call you in
I shout these songs to let you go
I use my voice to fill the space that I am in
It’s a space I do not know

How deep can I dig into your past?
To hold on tight and hope that it will last
You were drifting now you’re gone
You were weak and now you’re strong
Teach me all the words that I can say to bring you back

Show me signs to let me know that I will be okay
Salve for sadness, balm for this mess that I sift through everyday
You are arrows tipped with pine, shot through chests and left behind
On the forest floor where I will wait ’til you come home

I sing these hymns to call you in
I shout these songs to let you go
I use my voice to fill the space that I am in
It’s a space I do not know

Please comment & rate!

To play the this songs, including Arrows by Evening Hymns by ukulele, the most crucial basic ukulele chords to learn are C chord, D chord, G chord, and Em chord.
These set you up to play a many of songs, and each of them is easy to master.

Gravatar Image
Like to play Ukulele and Sudoku Game

Leave a Reply

Your email address will not be published. Required fields are marked *