Assertion by Typecast Ukulele Chords

Posted on

If you are looking for Assertion ukulele chords, you already come to the right place.
You can play versatile instrument Assertion using ukulele or guitar.
This song by Typecast can also be played by that instruments.
=

Assertion chords has rhythm and included in The Infatuation Is Always There (2004) album.
You can also find other musical style, including jazz ukulele chords, country music ukulele chords, pop ukulele chords, world music ukulele chords, and rock ukulele chords here.

Assertion by Typecast Ukulele Chords

Assertion by Typecast

Tuning : Standard
Legend : / – slide
h – hammer on
p – pull off
? – palm mute
x – mute
– guitar #1
– guitar #2

(Distortion)
INTRO:


e||-----------------------------------------|
B||-----------------------------------------|
G||--------0------0-------0------0----------| (2x)
D||------2--22--2--22-2-2--22--2------------|
A||------------------0-0-0---00-0-----------|
E||-00011-1---11-1--------------------------|


e||------------------------------------------------------------------------|
B||------------------------------------------------------------------------|
G||-----------------555544444444444444-55555-77-99-1010-99-77-444444444444-|
D||222-333333333333--------------------------------------------------------|
A||222-333333333333-333322222222222222-33333-55-77--8-8-77-55-222222222222-|
E||000-111111111111--------------------------------------------------------|


e||-----------------------------------------------------------------|
B||-----------------------------------------------------------------|
G||--------------------222222222222--------------------222222222222-|
D||-222-33333333333333-222222222222-222-33333333333333-222222222222-|
A||-222-33333333333333-000000000000-222-33333333333333-000000000000-|
E||-000-11111111111111--------------000-11111111111111--------------|

VERSE1:
Unexplained sight…


e||-----------------------------------------------------------------|
B||-----------------------------------------------------------------|
G||-----------------------------------------------------------------|
D||-222-33333333333333-2222222222222h32-33333333333333-222222222222-|
A||-----------------------------------------------------------------|
E||-----------------------------------------------------------------|


e||-----------------------------------------------------------------|
B||-----------------------------------------------------------------|
G||--------------------222222222222--------------------222222222222-|
D||-222-33333333333333-222222222222-222-33333333333333-222222222222-|
A||-222-33333333333333-000000000000-222-33333333333333-000000000000-|
E||-000-11111111111111--------------000-11111111111111--------------|

& Impulsive scene…


e||------------------------------------------|
B||------------------------------------------|
G||------------------------------------------|
D||-222-333x-3333333x-3333-777x-7777777x-777-|
A||-222-333x-3333333x-3333-777x-7777777x-777-|
E||-000-333x-1111111x-1111-555x-5555555x-555-|

REFRAIN:


e||---------------------| e||---------------------|
B||---------------------| B||---------------------|
G||---------------------| G||---------------------|
D||-------2-----------2-| D||-------2-----------2-|
A||-3--5--0--3--3--2--0-| A||-3--2--0--3--3--2--0-|
E||----------1----------| E||----------1----------|

Anyway…


e||------------------------------------------------------------------------|
B||------------------------------------------------------------------------|
G||-----------------555544444444444444-55555-77-99-1010-99-77-444444444444-|
D||222-333333333333--------------------------------------------------------|
A||222-333333333333-333322222222222222-33333-55-77--8-8-77-55-222222222222-|
E||000-111111111111--------------------------------------------------------|


e||-----------------------------------------------------------------|
B||-----------------------------------------------------------------|
G||--------------------222222222222--------------------222222222222-|
D||-222-33333333333333-222222222222-222-33333333333333-222222222222-|
A||-222-33333333333333-000000000000-222-33333333333333-000000000000-|
E||-000-11111111111111--------------000-11111111111111--------------|

VERSE2:
And affirmation denies everything i need to say…


e||-----------------------------------------------------------------|
B||-----------------------------------------------------------------|
G||-----------------------------------------------------------------|
D||-222-33333333333333-2222222222222h32-33333333333333-222222222222-|
A||-----------------------------------------------------------------|
E||-----------------------------------------------------------------|


e||-----------------------------------------------------------------|
B||-----------------------------------------------------------------|
G||--------------------222222222222--------------------222222222222-|
D||-222-33333333333333-222222222222-222-33333333333333-222222222222-|
A||-222-33333333333333-000000000000-222-33333333333333-000000000000-|
E||-000-11111111111111--------------000-11111111111111--------------|

& Why can’t you feel…


e||------------------------------------------|
B||------------------------------------------|
G||------------------------------------------|
D||-222-333x-3333333x-3333-777x-7777777x-777-|
A||-222-333x-3333333x-3333-777x-7777777x-777-|
E||-000-333x-1111111x-1111-555x-5555555x-555-|

REFRAIN:


e||-----------------1-----------| e||---------------------|
B||----------------1-1----------| B||---------------------|
G||---------------2---2---------| G||---------------------|
D||-------2------3------------2-| D||-------------------2-|
A||-3--5--0--3--3-------3--5--0-| A||-3--2--3--3--3--2--0-|
E||----------1------------------| E||----------1----------|

BRIDGE:


e||-----------------------------------------|
B||-----------------------------------------|
G||--------0------0-------0------0----------| (6x)
D||------2--22--2--22-2-2--22--2------------|
A||------------------0-0-0---00-0-----------|
E||-00011-1---11-1--------------------------|

Could you even pretend that you want me…


e||-----------------------------------------|
B||-----------------------------------------|
G||--------0------0-------0------0----------| (3x)
D||------2--22--2--22-2-2--22--2------------|
A||------------------0-0-0---00-0-----------|
E||-00011-1---11-1--------------------------|


e||-------------------------------------------------------------------------|
B||-------------------------------------------------------------------------|
G||-------------------------------------------------------------------------|
D||------------?2--?3?2--?2----?2--?3?2--?2----?2--?3?2--?2----?2--?3?2--?2-|
A||----------------------------------------?0?0--?0----?0--?0?0--?0----?0---|
E||-?0?0?0-?1?1--?1----?1--?1?1--?1----?1-----------------------------------|
e||------------------------------------------------------------------|
B||------------------------------------------------------------------|
G||------------------------------------------------------------------| (2x)
D||-----?2--?3?2--?2----?2--?3?2--?2----?2--?3?2--?2----?2--?3?2--?2-|
A||---------------------------------?0?0--?0----?0--?0?0--?0----?0---|
E||-?1?1--?1----?1--?1?1--?1----?1-----------------------------------|

OUTRO:
Want me!


e||---------------------------------|
B||---------------------------------|
G||---------------------------------|

D||-33333333333333-7777777777777777-|
A||-33333333333333-7777777777777777-|
E||-11111111111111-5555555555555555-|


e||-------------------------------------------------------------------------------|
B||-------------------------------------------------------------------------------|
G||----------------5555-44444444444444-5555-7777-9999-10101010-12121212-10101010--|
D||-33333333333333----------------------------------------------------------------|
A||-33333333333333-3333-22222222222222-3333-5555-7777--8-8-8-8-10101010--8-8-8-8--|
E||-11111111111111----------------------------------------------------------------|
------------------------------------------------------------------------------------|
------------------------------------------------------------------------------------|
-9999-7777-4444-5555-7777-9999-4444-5555-7777-9999-4444-5555-7777-5555-444444444444-|
------------------------------------------------------------------------------------|
-7777-5555-2222-3333-5555-5555-2222-3333-5555-7777-2222-3333-5555-3333-222222222222-|
------------------------------------------------------------------------------------|

&


e||---------------------------------| e||-----------------|
B||---------------------------------| B||-----------------|
G||---------------------------------| (4x) G||-------------|
D||-33333333333333-7777777777777777-| D||-222-3-----------|
A||-33333333333333-7777777777777777-| A||-222-3-----------|
E||-11111111111111-5555555555555555-| E||-000-1-----------|

END

To play the most songs, including Assertion by Typecast by ukulele, the most crucial basic ukulele chords to learn are C chord, D chord, G chord, and Em chord.
These set you up to play a a lot of songs, and each of them is easy to learn.

Leave a Reply

Your email address will not be published.