Bad Love by Eric Clapton Ukulele Chords

Posted on

If you are searching for Bad Love ukulele chords, you’ve come to the right site.
You can play versatile instrument Bad Love using ukulele or guitar.
This song by Eric Clapton can also be played by that instruments.
=

Bad Love chords has rhythm and included in Journeyman (1989) album.
You can also find another musical style, including jazz ukulele chords, country music ukulele chords, pop ukulele chords, world music ukulele chords, and rock ukulele chords here.

Bad Love by Eric Clapton Ukulele Chords


Intro:

(Keyboard)





(Guitar) 1x only Riff (without chords and drums)
1x Riff with chords and drums


e|------5--8-------------------------------5--8--------------------|
B|-----------8-----------6--6--6-----------------8--6--5-----------|
G|-5--7-------------5-7---------------5--7---------------7---------|
D|-----------------------------------------------------------------|
A|-----------------------------------------------------------------|
E|-----------------------------------------------------------------|


e|------5--8-------------------------------5--8-10-----------------|
B|-----------8-----------6--6--6-------------------8--6------------|
G|-5--7-------------5-7---------------5--7---------------7---------|
D|-----------------------------------------------------------------|
A|-----------------------------------------------------------------|
E|-----------------------------------------------------------------|

Verse 1:

Oh What a feeling I get when I’m with you
You take my heart into everything you do

And it makes me sad for the lonely people
I walked that road for so long
Now I know that I’m one of the lucky people
Your love is making me strong

Chorus:

Had enough bad love
I need something I can be proud of
Had enough bad love
No more bad love


e|------5--8-------------------------------5--8--------------------|
B|-----------8-----------6--6--6-----------------8--6--5-----------|
G|-5--7-------------5-7---------------5--7---------------7---------|
D|-----------------------------------------------------------------|
A|-----------------------------------------------------------------|
E|-----------------------------------------------------------------|


e|------5--8-------------------------------5--8-10-----------------|
B|-----------8-----------6--6--6-------------------8--6------------|
G|-5--7-------------5-7---------------5--7---------------7---------|
D|-----------------------------------------------------------------|
A|-----------------------------------------------------------------|
E|-----------------------------------------------------------------|

Verse 2:

And now I see that my life has been so blue
With all the heartaches I had till I met you

But I’m glad to say now that’s all behind me
With you here by my side
And there’s no more memories to remind me
Your love will keep me alive

Chorus:

Had enough bad love
I need something I can be proud of
Had enough bad love
No more bad love


e|------5--8-------------------------------5--8--------------------|
B|-----------8-----------6--6--6-----------------8--6--5-----------|
G|-5--7-------------5-7---------------5--7---------------7---------|
D|-----------------------------------------------------------------|
A|-----------------------------------------------------------------|
E|-----------------------------------------------------------------|


e|------5--8-------------------------------5--8-10-----------------|
B|-----------8-----------6--6--6-------------------8--6------------|
G|-5--7-------------5-7---------------5--7---------------7---------|
D|-----------------------------------------------------------------|
A|-----------------------------------------------------------------|
E|-----------------------------------------------------------------|

Solo:

–> repeat 3x


e|------------------------------2-----------------------------------2---------|
B|------------------------------3-----------------------------------3---------|
G|------------------------------2-----------------------------------2---------|
D|------------------------------0-----------------------------------0---------|
A|-0h2h3--2--0---------------0-----------0h2h3--2--0---------------0----------|
E|--------------3------3--2---------------------------3------3--2-------------|


e|------------------------------2----------------------------------2----------|
B|------------------------------3----------------------------------3----------|
G|------------------------------2-------------------------------- -2----------|
D|------------------------------0----------------------------------0----------|
A|-0h2h3--2--0---------------0-----------0h2h3--2--0--------------------------|
E|--------------3------3--2---------------------------3------3---2------------|


e|------5--8-------------------------------5--8--------------------|
B|-----------8-----------6--6--6-----------------8--6--5-----------|
G|-5--7-------------5-7---------------5--7---------------7---------|
D|-----------------------------------------------------------------|
A|-----------------------------------------------------------------|
E|-----------------------------------------------------------------|


e|------5--8-------------------------------5--8-10-----------------|
B|-----------8-----------6--6--6-------------------8--6------------|
G|-5--7-------------5-7---------------5--7---------------7---------|
D|-----------------------------------------------------------------|
A|-----------------------------------------------------------------|
E|-----------------------------------------------------------------|

Chorus: 3x

Had enough bad love
I need something I can be proud of
Had enough bad love
No more bad love

To play the this songs, including Bad Love by Eric Clapton by ukulele, the most crucial basic ukulele chords to learn are C chord, D chord, G chord, and Em chord.
These set you up to play a ton of songs, and each of them is easy to master.

Leave a Reply

Your email address will not be published.