Beast and the Harlot by Avenged Sevenfold Ukulele Chords

Posted on

If you are looking for Beast and the Harlot ukulele chords, you’ve visit to the best place.
You can play versatile instrument Beast and the Harlot using ukulele or guitar.
This song by Avenged Sevenfold can also be played by that instruments.
=

Beast and the Harlot chords has rhythm and included in City of Evil (2005) album.
You can also find other musical genres, including jazz ukulele chords, country music ukulele chords, pop ukulele chords, world music ukulele chords, and rock ukulele chords here.

Beast and the Harlot by Avenged Sevenfold Ukulele Chords


-------------------------------------------------------------------------------

Beast and the Harlot – Avenged Sevenfold


-------------------------------------------------------------------------------

Tabbed by:
Email: syn_gates_punk14@msn.com

This is the solo from “Beast and the Harlot.”

Tuning: Drop-D (D A D G B E) [low to high]

… : palm mute
B bend
[] note the bend should sound like
bring bent note to this note.
() note is note struck.
/ slides
~ vibrato, ring out
h hammer on
p pull off

Guitar 1:


e|-10---------------12---------(12)//---16-----------16-------16-------------(16)--|
B|-13b~~~~~~~~--15b----(15)//---19b------19b--19~~~~~~~~-(19)--|
G|----------------------------------------------------------------------------------|
D|----------------------------------------------------------------------------------|
A|----------------------------------------------------------------------------------|
D|----------------------------------------------------------------------------------|

Guitar 1:


e|-/10---13p10-----10-------------------------------------------------------------|
B|--------------13-----13b~~~~~~(13)---8---------9-------10-------11--------|
G|------------------------------------------10b--11b--12b--13b---|
D|--------------------------------------------------------------------------------|
A|--------------------------------------------------------------------------------|
D|--------------------------------------------------------------------------------|

Guitar 1:


e|----------------------------------------13-15-16--17~~-|
B|-13-12-11-10-14-13-12-11-15-14-13-14-16----------------|
G|-------------------------------------------------------|
D|-------------------------------------------------------|
A|-------------------------------------------------------|
D|-------------------------------------------------------|

Guitar 1:


e|-17------17------------------/20-17--------------------------------------|
B|---18-17----17-18-17----17----------20-17--(17)-------------------------|
G|---------------------17---17----------------------7-5-----------5-6-7~~~-|
D|-----------------------------------------------------------5-6-7---------|
A|------------------------------------------------------5-6-8--------------|
D|-------------------------------------------------------------------------|

Guitar 1:


e|-------------------------------------------------12-|
B|-----------------------------9-10-13-11-10-11-13----|
G|-(7)-/9~~~--7-9-10~~~--9h10------------------------|
D|----------------------------------------------------|
A|----------------------------------------------------|
D|----------------------------------------------------|

Guitar 1:


e|-13~~~-(13)-/13-/15-/12~~~(12)--------------------------------------------|
B|----------------------------------/13~~~(13)13b----(13)b----|
G|------------------------------------------------------------------------------|
D|------------------------------------------------------------------------------|
A|------------------------------------------------------------------------------|
D|------------------------------------------------------------------------------|

Guitar 2:


e|-17~~~-(17)-/17-/18-/15~~~(15)--------------------------------------------|
B|----------------------------------/17~~~(17)17b----(17)b----|
G|------------------------------------------------------------------------------|
D|------------------------------------------------------------------------------|
A|------------------------------------------------------------------------------|
D|------------------------------------------------------------------------------|

Guitar 1:
e|-13b~~~~~~~~~~~~~-|


B|----------------------|
G|----------------------|
D|----------------------|
A|----------------------|
D|----------------------|

Guitar 2:
e|-20b~~~~~~~~~~~~~-|


B|----------------------|
G|----------------------|
D|----------------------|
A|----------------------|
D|----------------------|

Guitar 1:


e|---------------------------------------------------------------------------------|
B|---------------------------------------------------------------------------------|
G|----------------7-8-8-7------------------------------7-8-10-8-7-10-8-7-----------|
D|-------5-7-8-10--------10-8-7----7-------------7-8-10-------------------10-8-7-7-|
A|-5-7-8------------------------10--10-8-7-8-10------------------------------------|
D|---------------------------------------------------------------------------------|

………..

Guitar 1:


e|----------------------------------------------------10h12h13p12p10-12-10------------------------|
B|----------------------------------10-11-13-10-11-13---------------------13--11-10h11p10---------|
G|-------------7-9-10-12-10-9-10-12-------------------------------------------------------12-10~~-|
D|------7-8-10------------------------------------------------------------------------------------|
A|-8-10-------------------------------------------------------------------------------------------|
D|------------------------------------------------------------------------------------------------|

Really Fast
Guitar 1:


e|-22-21-20-19-------------------------------------------------------------------------------|
B|------------22-21-20-19-----------------------22-21-20-19----------------------------------|
G|-----------------------22-21-10-19-----------------------22-21-20-19-----------------------|
D|----------------------------------22-21-20-19-----------------------22-21-20-19------------|
A|-------------------------------------------------------------------------------22-21-20-19-|
D|-------------------------------------------------------------------------------------------|

Guitar 2:


e|-18-17-16-15------------------------------------------------------------------------------|
B|------------18-17-16-15----------------------18-17-16-15----------------------------------|
G|-----------------------18-17-16-15----------------------18-17-16-15-----------------------|
D|----------------------------------18-17-16-15----------------------18-17-16-15------------|
A|------------------------------------------------------------------------------18-17-16-15-|
D|------------------------------------------------------------------------------------------|

Guitar 1:


e|-18-17-16-15------------------------------------------------------------------------------|
B|------------18-17-16-15----------------------18-17-16-15----------------------------------|
G|-----------------------18-17-16-15----------------------18-17-16-15-----------------------|
D|----------------------------------18-17-16-15----------------------18-17-16-15------------|
A|------------------------------------------------------------------------------18-17-16-15-|
D|------------------------------------------------------------------------------------------|

Guitar 2:


e|-15-14-13-12------------------------------------------------------------------------------|
B|------------15-14-13-12----------------------15-14-13-12----------------------------------|
G|-----------------------15-14-13-12----------------------15-14-13-12-----------------------|
D|----------------------------------15-14-13-12----------------------15-14-13-12------------|
A|------------------------------------------------------------------------------15-14-13-12-|
D|------------------------------------------------------------------------------------------|

Guitar 1:


e|-----------------------|

B|—17b~~~~~~~~~~~~-|


G|-----------------------|
D|-----------------------|
A|-----------------------|
D|-----------------------|

Guitar 2:


e|-----------------------|
B|-----------------------|

G|—17b~~~~~~~~~~~~-|


D|-----------------------|
A|-----------------------|
D|-----------------------|

That’s it. Pretty fast solo as well. Rate it or comment it.

To play the most songs, including Beast and the Harlot by Avenged Sevenfold by ukulele, the most important basic ukulele chords to learn are C chord, D chord, G chord, and Em chord.
These set you up to play a many of songs, and each of them is easy to learn.

Leave a Reply

Your email address will not be published.