Bent by Matchbox Twenty Ukulele Chords

Posted on

If you are looking for Bent ukulele chords, you already visit to the best site.
You can play versatile instrument Bent using ukulele or guitar.
This song by Matchbox Twenty can also be played by that instruments.
=

Bent chords has rhythm and included in Mad Season (2000) album.
You can also find another musical genres, including jazz ukulele chords, country music ukulele chords, pop ukulele chords, world music ukulele chords, and rock ukulele chords here.

Bent by Matchbox Twenty Ukulele Chords

Bent
Matchbox Twenty

F#m is played over this riff

begin note bent up half step (should sound like 10th fret, then go
down to 9th)


e----------------------------------------------------------------------
b----------------------------------------------------------------------
g----------------------------------------------------------------------
d--9---10^9---10^9--7--6--------------6-7-9---10^9---10^9---7--6-------
a------------------------7---9----7-9-----------------------------9----
e--------------------------9-------------------------------------------

If I fall along the way
Pick me up and dust me off
and if I get too tired to make it
be my breath so I can walk

If I need some other love
give me more than I can stand
and when my smile gets old and faded
wait around I’ll smile again

shouldn’t be so complicated
just hold me and then
just hold me again

can you help me I’m bent
I’m so scared that I’ll never
get put back together
you’re breaking me in
and this is how we will end
with you and me bent


d----------
a----------
e----5--4--

If I couldn’t sleep could you sleep
could you paint me better off
could you sympathize with my needs
I know you think I need a lot

I started out clean but I’m jaded
just phoning it in
just breaking the skin

can you help me I’m bent
I’m so scared that I’ll never
get put back together
you’re breaking me in
and this is how we will end
with you and me bent


start bending me
It’s never enough
I feel all your pieces
start bending me
Keep bending me until I’m completely broken in

F#m is played over this riff

begin note bent up half step (should sound like 10th fret, then go
down to 9th)


e----------------------------------------------------------------------
b----------------------------------------------------------------------
g----------------------------------------------------------------------
d--9---10^9---10^9--7--6--------------6-7-9---10^9---10^9---7--6-------
a------------------------7---9----7-9----------------------------------
e--------------------------9-------------------------------------------

shouldn’t be so complicated
just touch me and then
just touch me again

can you help me I’m bent
I’m so scared that I’ll never
get put back together
you’re breaking me in
and this is how we will end
with you and me bending
without understanding, hell I’ll go there again

can you help me I’m bent
I’m so scared that I’ll never
get put back together
you’re breaking me in
and this is how we will end
with you and me bent

To play the this songs, including Bent by Matchbox Twenty by ukulele, the most important basic ukulele chords to learn are C chord, D chord, G chord, and Em chord.
These set you up to play a a lot of songs, and each of them is easy to master.

Leave a Reply

Your email address will not be published.