Better Man by Leon Bridges Ukulele Chords

Posted on

If you are looking for Better Man ukulele chords, you’ve visit to the right place.
You can play versatile instrument Better Man using ukulele or guitar.
This song by Leon Bridges can also be played by that instruments.
=

Better Man chords has rhythm and included in Coming Home (2015) album.
You can also get another musical style, including jazz ukulele chords, country music ukulele chords, pop ukulele chords, world music ukulele chords, and rock ukulele chords here.

Better Man by Leon Bridges Ukulele Chords

(Intro)


e|-----------|
B|-----------|
G|-----------|
D|-----------|
A|-3-0-3-0---|
E|---------3-|



e|--------------------|
B|--------------------|
G|--------------------|
D|--------------9-7-5-|
A|------------7-------|
E|-7-5-7-8-10---------|

(Verse 1)
Well I don’t want much, I just wanna be a better man to my baby, Mmmhhh
Meet me off good luck, I was singing with them Jezebels under perfume sheets, Mmmhh
Got a golden smile, heart overflow
But got us in love, but it wasn’t enough

(Chorus)
What can I do? What can I do?
To get back to your heart
I’d swim the Mississippi River
If you would give me another start, girl


e|-----------|
B|-----------|
G|-----------|
D|-----------|
A|-3-0-3-0---|
E|---------3-|



e|--------------------|
B|--------------------|
G|--------------------|
D|--------------9-7-5-|
A|------------7-------|
E|-7-5-7-8-10---------|

(Verse 2)
All night long I was out, out til the morning
But baby your tender love’s what I’m longing
Baby, please, I’m down on my knees begging
Oooooh I thirst for you girl, baby I’m running to your well

(Chorus)
What can I do? What can I do?
To get back to your heart
I’d swim the Mississippi River
If you would give me another start, girl


e|-----------|
B|-----------|
G|-----------|
D|-----------|
A|-3-0-3-0---|
E|---------3-|



e|--------------------|
B|--------------------|
G|--------------------|
D|--------------9-7-5-|
A|------------7-------|
E|-7-5-7-8-10---------|

(Chorus)
What can I do? What can I do?
To get back to your heart
I’d swim the Mississippi River

What can I do? What can I do?
To get back to your heart
I’d swim the Mississippi River
If you would give me another start, girl

To play the this songs, including Better Man by Leon Bridges by ukulele, the most crucial basic ukulele chords to learn are C chord, D chord, G chord, and Em chord.
These set you up to play a many of songs, and each of them is easy to learn.

Leave a Reply

Your email address will not be published.