Big Time Nashville Star by Shakey Graves Ukulele Chords

Posted on

If you are looking for Big Time Nashville Star ukulele chords, you’ve come to the right place.
You can play versatile instrument Big Time Nashville Star using ukulele or guitar.
This song by Shakey Graves can also be played by that instruments.
=

Big Time Nashville Star chords has rhythm and included in And the War Came (2014) album.
You can also get other musical genres, including jazz ukulele chords, country music ukulele chords, pop ukulele chords, world music ukulele chords, and rock ukulele chords here.

Big Time Nashville Star by Shakey Graves Ukulele Chords

Tuning: Standard


e|--0-------------------------------------------------0----------------------|
B|--0-------------------------------------------------0----------------------|
G|--1-------------------------------------------------1----------------------|
D|--2-------------------------------------------------2----------------------|
A|--2------------0h2p0--------------------------------2----------------------|
E|--0----0h2p0----------2p0---------------------------0----------------------|

FOLLOWED BY


e|----------------------------------------------------0----------------------|
B|------------------------2h3p2p0--2p0----------------0----------------------|
G|--2h3p2p0--2p0-----------------------2p0------------1----------------------|
D|----------------2p0---------------------------------2----------------------|
A|----------------------------------------------------2----------------------|
E|----------------------------------------------------0----------------------|

AND


e|---------------------------------------------------------------------------|
B|------------------------2h3p2p0--------------------------------------------|
G|--2h3p2p0--2p0-------------------------------------------------------------|
D|---------------2p0---------------------------------------------------------|
A|---------------------------------------------------------------------------|
E|--------------------------------3p0-3p0------------------------------------|

Each of these is played very quickly and timing can be determined pretty easily from
listening to the recording.

The chords are as follows:

CHORUS (the last line starts on Bm and features a walk-down in the Bass note)

You might wander far

Be a Big Time Nashville Star

Still it never hurts

Bm A G# F# E
Even when you do your worst (Play the Bm, open on high E; then play with open A string, then fret 4
on 6th string (G#), then fret 2 on 6th string (F#), then end on E chord)

Each chord in the last line should look like:

[A/Bm] [G#/Bm] [F#/Bm]


e|--0--------0----------0---------0------0-----------------------------------|
B|--3--------3----------3---------3------0-----------------------------------|
G|--4--------4----------4---------4------1-----------------------------------|
D|--4--------4----------4---------4------2-----------------------------------|
A|--2--------0----------0---------0------2-----------------------------------|
E|--x--------x----------4---------2------0-----------------------------------|

This walk-down will also appear in the verses.

VERSE

Well I’m a wheel that’s always turning, oh

Well I always start out where I end

And me, I’m like a fire that’s always burning

But oh, how, time, flies

Bm A G# F# (Same walk-down from chorus)
Right by the wayside

REPEAT (Choruses change lyrics as well)

To play the most songs, including Big Time Nashville Star by Shakey Graves by ukulele, the most crucial basic ukulele chords to learn are C chord, D chord, G chord, and Em chord.
These set you up to play a a lot of songs, and each of them is easy to master.

Leave a Reply

Your email address will not be published.