Bitiw by Sponge Cola Ukulele Chords

Posted on

If you are looking for Bitiw ukulele chords, you already come to the right site.
You can play versatile instrument Bitiw using ukulele or guitar.
This song by Sponge Cola can also be played by that instruments.
=

Bitiw chords has rhythm and included in Transit (2006) album.
You can also find another musical style, including jazz ukulele chords, country music ukulele chords, pop ukulele chords, world music ukulele chords, and rock ukulele chords here.

Bitiw by Sponge Cola Ukulele Chords

Title : Bitiw
Artist : Sponge cola

Ear tabber : ROGEM S. BATTUNG
Address : Palawan St. Sampaloc Manila
E-mail add 1: guitarizta_rogem@yahoo.com
Contact no : 09187229082

School : EARIST B.S. APPLIED PHYSICS-1
Time Elapsed: 8:05 PM – 8:30 PM
Date : October 5, 2006

:::::::::READ FIRST::::::::::Bago mo i CoPy 2 important
Im Rogem EARIST BSAP-1 Student i made a two kind of this tab one is in
E-standard tuning and another one is in Eb tuning. This song is actually played in Eb tuning.
but i also made a E-Standard Tuning for those who dont know yet how to tune their guitar on Eb tuning.

Para sa mga 1st time tabbers wag kayo malito dito intindihin nyo lang
kahit nakakalito talaga hehehe ganyan din ako nung una.

unahin ko muna ung E-standard tuning kc mas madaming gumagamit ng
E-standard na guitara para dun naman sa mga advance user meron din ako Eb-tuning down
lang ung page ok makikita nyo dun,,,

THIS IS THE E – STANDARD TUNING

Title : Bitiw
Ear Tabber : ROGEM S. BATTUNG
Tuning : E A D G B E
GTR-1 Rhythym Guitar
GTR-2 Lead Guitar
GTR-3 Base Guitar

INTRO

GTR-1
[Bb-C] [Bb-C]


e|-------------------------------|-------------------------|
B|-------------------------------|-------------------------|
G|-55-555-555-555--3-5-----------|-55-555-555-555--3-5-----|
D|-55-555-555-555--3s5-----------|-55-555-555-555--3s5-----|
A|-33-333-333-333--1-3-----------|-33-333-333-333--1-5-----|
E|-------------------------------|-------------------------|

[Eb-C] [Bb-C]


e|-------------------------------|-------------------------|
B|-------------------------------|-------------------------|
G|-55-555-555-555--8-5-----------|-66-666-666-666--4-6-----|
D|-55-555-555-555--8s5-----------|-66-666-666-666--4s6-----|
A|-33-333-333-333--6-3-----------|-44-444-444-666--2-4-----|
E|-------------------------------|-------------------------|

VERSE 1
[Bb-C] [Bb-C]


e|-------------------------------|-------------------------|
B|-------------------------------|-------------------------|
G|-55-555-888-888--3-5-----------|-55-555-888-888--3-5-----|
D|-55-555-888-888--3s5-----------|-55-555-888-888--3s5-----|
A|-33-333-666-666--1-3-----------|-33-333-666-666--1-5-----|
E|-------------------------------|-------------------------|

Tama walang laglagan At sama-samang hanapin ang liwanag
[Eb-C] [Bb-C]


e|-------------------------------|-------------------------|
B|-------------------------------|-------------------------|
G|-55-555-888-888--8-5-----------|-66-666-888-888--3-6-----|
D|-55-555-888-888--8s5-----------|-66-666-888-888--3s6-----|
A|-33-333-666-666--6-3-----------|-44-444-666-666--1-4-----|
E|-------------------------------|-------------------------|

At tayo’y magpa2alon sa 1 daluyong Na maghahatid sa atin


e|-------------------------------|-------------------------|
B|-------------------------------|-------------------------|
G|-------------------------------|----------4--------------|
D|-33333333----------------------|--6---5---3---5----------|
A|-33333333----------------------|--6---5---1---5----------|
E|-11111111----------------------|--4---3-------3----------|

Sa isang mahabang panaginip ‘di na hihinto


e|-------------------------------|-------------------------|
B|-------------------------------|-------------------------|
G|-66666666----------------------|-77777777----------------|
D|-66666666----------------------|-77777777----------------|
A|-44444444----------------------|-66666666----------------|
E|-------------------------------|-------------------------|

………………………… Wooh-ohh ULOL . hehehe

CHORUS


e|-------------------------------|-------------------------|
B|-------------------------------|-------------------------|
G|-88888888----------------------|-------------------------|
D|-88888888----------------------|-55555555----------------|
A|-66666666----------------------|-55555555----------------|
E|-------------------------------|-33333333----------------|

Wag kang bibitiw bigla Wag kang bibitiw bigla


e|-------------------------------|-------------------------|
B|-------------------------------|-------------------------|
G|-------------------------------|-------------------------|
D|-33333333----------------------|--66666666---------------|
A|-33333333----------------------|--66666666---------------|
E|-11111111----------------------|--44444444---------------|

Higpitan lang ang iyong kapit Maglalayag patungong langit

BASS GUITAR (pwede rin sa acoustic or elec. qng wala kyo bass
GTR-3


e|---------------------------------------------------------|
B|---------------------------------------------------------|
G|---------------------------------------------------------|
D|---------------------------------------------------------|
A|---------------------------------------------------------|
E|-8-8-8-8---6-6-6-6---3-3-3-3---1-1-1-1-------------------|


e|---------------------------------------------------------|
B|---------------------------------------------------------|
G|---------------------------------------------------------|
D|---------------------------------------------------------|
A|---------------------------------------------------------|
E|-8-8-8-8---6-6-6-6---3-3-3-3---1-1-1-1-------------------|

Na na na na na na na na ………….


e|---------------------------------------------------------|
B|---------------------------------------------------------|
G|-55------------------------------------------------------|
D|-55------55---------88-----------------------------------|
A|-33------55---------88-----------------------------------|
E|---------33---------66-----------------------------------|

Teka, kaya ba natin ‘to


e|---------------------------------------------------------|
B|---------------------------------------------------------|
G|-55------------------------------------------------------|
D|-55------55---------88-----------------------------------|
A|-33------55---------88-----------------------------------|
E|---------33---------66-----------------------------------|

Kung hindi na’y aakayin ka’t itatayo


e|---------------------------------------------------------|
B|---------------------------------------------------------|
G|-55------------------------------------------------------|
D|-55------55---------88-----------------------------------|
A|-33------55---------88-----------------------------------|
E|---------33---------66-----------------------------------|

yun ‘yon kaya hangang ngayon


e|---------------------------------------------------------|
B|---------------------------------------------------------|
G|---------------------------------------------------------|
D|-666666666-----------------------------------------------|
A|-666666666-----------------------------------------------|
E|-444444444-----------------------------------------------|

Tuloy-tuloy, tuloy-tuloy, tuloy

CHORUS


e|-------------------------------|-------------------------|
B|-------------------------------|-------------------------|
G|-88888888----------------------|-------------------------|
D|-88888888----------------------|-55555555----------------|
A|-66666666----------------------|-55555555----------------|
E|-------------------------------|-33333333----------------|

Wag kang bibitiw bigla Wag kang bibitiw bigla


e|-------------------------------|-------------------------|
B|-------------------------------|-------------------------|
G|-------------------------------|-------------------------|
D|-33333333----------------------|--66666666---------------|
A|-33333333----------------------|--66666666---------------|
E|-11111111----------------------|--44444444---------------|

Higpitan lang ang iyong kapit Maglalayag patungong langit


e|-------------------------------|-------------------------|
B|-------------------------------|-------------------------|
G|-88888888----------------------|-------------------------|
D|-88888888----------------------|-55555555----------------|
A|-66666666----------------------|-55555555----------------|
E|-------------------------------|-33333333----------------|

Wag kang bibitiw bigla Pikit ang yong mga mata


e|-------------------------------|-------------------------|
B|-------------------------------|-------------------------|
G|-------------------------------|-------------------------|
D|-33333333----------------------|--66666666---------------|
A|-33333333----------------------|--66666666---------------|
E|-11111111----------------------|--44444444---------------|

Higpitan lang ang iyong kapit Maglalayag patungong langit

INTERLUDE
GTR-3


e|--------------------------------------------------------|
B|--------------------------------------------------------|
G|--------------------------------------------------------|
D|--------------------------------------------------------|
A|-3-3-3--1-3--------------------3-3-3--1-3-------5-5-----|
E|-------------3--1--3-3---------------------3-3----------|

then play GTR-3 and GTR riff nilagay ko na ha
kung GTR-3 or GTR-2 ung I-pplay mo ok
GTR-3


e|--------------------------------------------------------|
B|--------------------------------------------------------|
G|--------------------------------------------------------|
D|--------------------------------------------------------|
A|-3-3-3--1-3--------------------3-3-3--1-3-------5-5-----|
E|-------------3--1--3-3---------------------3-3----------|

| GTR-2 riff


e|--------------------------------------------------------|
B|-8-9--8s6-8h6s4-6-4s3-4-3s1-----------------------------|
G|-----------------------------3-4s5~------3---3---3~~~~--|
D|-------------------------------------------5--5---------|
A|--------------------------------------------------------|
E|--------------------------------------------------------|

GTR-1


e|--------------------------------------------------------|
B|--------------------------------------------------------|
G|-555-3-7-----------------------555-3-7---------7--7-----|
D|-555-3-7---5----3----55--------555-3-7--5--5---7--7-----|
A|-333-1-5---5----3----55--------333-1-5--5--5---5--5-----|
E|-----------3----1----33-----------------3--3------------|

| GTR-2


e|--------------------------------------------------------|
B|-------3--3-3---3--3s5----------------------------------|
G|-----5-----5--5-------------------------3-3-3-3---------|
D|1s3-3-------------------------------5----5---5---1-1----|
A|-------------------------------1s3-3-----------3--------|
E|--------------------------------------------------------|

GTR-1


e|-------------------------------------------------------|
B|-------------------------------------------------------|
G|-------------------------------------------------------|
D|--333333333--------------666666666---------------------|
A|--333333333--------------666666666---------------------|
E|--111111111--------------444444444---------------------|

| GTR-2


e|--------------------------------------------------12---|
B|----------------------------4-4-6-6s8-6-8s9-9-10-------|
G|------------------------3s5----------------------------|
D|--2s3--------------------------------------------------|
A|-------------------------------------------------------|
E|-------------------------------------------------------|

GTR-1


e|-------------------------------------------------------|
B|-------------------------------------------------------|
G|-------------------------------------------------------|
D|--101010101010------5----------8-----------------------|
A|--101010101010------5----------8-----------------------|
E|---8-8-8-8-8-8------3----------6-----------------------|

Ating tinig,
GTR-2 Picking part 11 yan hindi 1-1 nxt 10 hindi 1-0 ok


e|--11111111111111111111111111111-10.10.10.10.10---------|
B|-------------------------------------------------------|
G|-------------------------------------------------------|
D|-------------------------------------------------------|
A|-------------------------------------------------------|
E|-------------------------------------------------------|


e|-------------------------------------------------------|
B|-------------------------------------------------------|
G|-------------------------------------------------------|
D|--101010101010------5----------8-----------------------|
A|--101010101010------5----------8-----------------------|
E|---8-8-8-8-8-8------3----------6-----------------------|

ating himig
GTR-2


e|--11111111111111111111111111111-10.10.10.10.10---------|
B|-------------------------------------------------------|
G|-------------------------------------------------------|
D|-------------------------------------------------------|
A|-------------------------------------------------------|
E|-------------------------------------------------------|


e|-------------------------------------------------------|
B|-------------------------------------------------------|
G|-------------------------------------------------------|
D|--101010101010------5----------8-----------------------|
A|--101010101010------5----------8-----------------------|
E|---8-8-8-8-8-8------3----------6-----------------------|

Abot langit
GTR-2


e|--11111111111111111111111111111-10.10.10.10.10---------|
B|-------------------------------------------------------|
G|-------------------------------------------------------|
D|-------------------------------------------------------|
A|-------------------------------------------------------|
E|-------------------------------------------------------|


B|-------------------------------------------------------|
G|-------------------------------------------------------|
D|--333333333--------------666666666---------------------|
A|--333333333--------------666666666---------------------|
E|--111111111--------------444444444---------------------|

Heto na tayo (heto na tayo) 2x
CHORUS


e|-------------------------------|-------------------------|
B|-------------------------------|-------------------------|
G|-88888888----------------------|-------------------------|
D|-88888888----------------------|-55555555----------------|
A|-66666666----------------------|-55555555----------------|
E|-------------------------------|-33333333----------------|

Wag kang bibitiw bigla Wag kang bibitiw bigla


e|-------------------------------|-------------------------|
B|-------------------------------|-------------------------|
G|-------------------------------|-------------------------|
D|-33333333----------------------|--66666666---------------|
A|-33333333----------------------|--66666666---------------|
E|-11111111----------------------|--44444444---------------|

Higpitan lang ang iyong kapit Maglalayag patungong langit


e|-------------------------------|-------------------------|
B|-------------------------------|-------------------------|
G|-88888888----------------------|-------------------------|
D|-88888888----------------------|-55555555----------------|
A|-66666666----------------------|-55555555----------------|
E|-------------------------------|-33333333----------------|

Wag kang bibitiw bigla Pikit ang yong mga mata


e|-------------------------------|-------------------------|
B|-------------------------------|-------------------------|
G|-------------------------------|-------------------------|
D|-33333333----------------------|--66666666---------------|
A|-33333333----------------------|--66666666---------------|
E|-11111111----------------------|--44444444---------------|

Higpitan lang ang iyong kapit Maglalayag patungong langit


e|-------------------------------|-------------------------|
B|-------------------------------|-------------------------|
G|-88888888----------------------|-------------------------|
D|-88888888----------------------|-55555555----------------|
A|-66666666----------------------|-55555555----------------|
E|-------------------------------|-33333333----------------|

wohhh…………………….


e|-------------------------------|-------------------------|
B|-------------------------------|-------------------------|
G|-------------------------------|-------------------------|
D|-33333333----------------------|--66666666---------------|
A|-33333333----------------------|--66666666---------------|
E|-11111111----------------------|--44444444---------------|


e|-------------------------------|-------------------------|
B|-------------------------------|-------------------------|
G|-88888888----------------------|-------------------------|
D|-88888888----------------------|-55555555----------------|
A|-66666666----------------------|-55555555----------------|
E|-------------------------------|-33333333----------------|

heto na tayo (heto na tayo) heto na tayo (heto na tayo)


e|-------------------------------|-------------------------|
B|-------------------------------|-------------------------|
G|-------------------------------|-5-5-3-5-5-3-5-----------|
D|-33333333----------------------|-3-3-1-3-3-1-3-5---------|
A|-33333333----------------------|---------------3---------|
E|-11111111----------------------|-------------------------|

heto na tayo (heto na tayo)
I DEDICATE THIS TO ALL BSAP STUDENT AND TO ALL EARIST STUDENT
!!
fOR ANY SUGGESTION TXT ME 09187229082 ROGEM ( if you tym rate my tab)
INVITE Nyo na Din Ako Guitarizta_rogem@yahoo.com

THIS IS THE Eb tuning

Title : Bitiw
Ear Tabber : ROGEM S. BATTUNG
Tuning : Eb Ab Db Gb Bb Eb
GTR-1 Rhythym Guitar
GTR-2 Lead Guitar
GTR-3 Base Guitar
INTRO
GTR-1
[B-C#] [B-C#]


e|-------------------------------|-------------------------|
B|-------------------------------|-------------------------|
G|-66-666-666-666--4-6-----------|-66-666-666-666--4-6-----|
D|-66-666-666-666--4s6-----------|-66-666-666-666--4s6-----|
A|-44-444-444-444--2-4-----------|-44-444-444-444--2-4-----|
E|-------------------------------|-------------------------|

[E-C#] [B-C#]


e|-------------------------------|-------------------------|
B|-------------------------------|-------------------------|
G|-66-666-666-666--9-6-----------|-66-666-666-666--4-6-----|
D|-66-666-666-666--9s6-----------|-66-666-666-666--4s6-----|
A|-44-444-444-444--7-4-----------|-44-444-444-666--2-4-----|
E|-------------------------------|-------------------------|

VERSE 1
[B-C#] [B-C#]


e|-------------------------------|-------------------------|
B|-------------------------------|-------------------------|
G|-66-666-999-999--4-6-----------|-66-666-999-999--4-6-----|
D|-66-666-999-999s-4s6-----------|-66-666-999-999s-4s6-----|
A|-44-444-777-777--2-4-----------|-44-444-777-777--2-4-----|
E|-------------------------------|-------------------------|

Tama walang laglagan At sama-samang hanapin ang liwanag
[E-C#] [B-C#]


e|-------------------------------|-------------------------|
B|-------------------------------|-------------------------|
G|-66-666-999-999--9-6-----------|-66-666-999-999--4-6-----|
D|-66-666-999-999s-9s6-----------|-66-666-999-999s-4s6-----|
A|-44-444-777-777--7-4-----------|-44-444-777-777--2-4-----|
E|-------------------------------|-------------------------|

At tayo’y magpa2alon sa 1 daluyong Na maghahatid sa atin
[F#-G#]


e|-------------------------------|-------------------------|
B|-------------------------------|-------------------------|
G|-------------------------------|-------------------------|
D|-44444444----------------------|-7--6---4-6--------------|
A|-44444444----------------------|-7--6---4-6--------------|
E|-22222222----------------------|-5--4---2-4--------------|

Sa isang mahabang panaginip ‘di na hihinto


e|-------------------------------|-------------------------|
B|-------------------------------|-------------------------|
G|-77777777----------------------|-88888888----------------|
D|-77777777----------------------|-88888888----------------|
A|-55555555----------------------|-66666666----------------|
E|-------------------------------|-------------------------|

………………………… Wooh-ohh
CHORUS


e|-------------------------------|-------------------------|
B|-------------------------------|-------------------------|
G|-11111111----------------------|-------------------------|
D|-22222222----------------------|-66666666----------------|
A|-22222222----------------------|-66666666----------------|
E|-------------------------------|-44444444----------------|

Wag kang bibitiw bigla Wag kang bibitiw bigla


e|-------------------------------|-------------------------|
B|-------------------------------|-------------------------|
G|-------------------------------|--22222222---------------|
D|-44444444----------------------|--22222222---------------|
A|-44444444----------------------|--00000000---------------|
E|-22222222----------------------|-------------------------|

Higpitan lang ang iyong kapit Maglalayag patungong langit
BASS GUITAR (pwede rin sa acoustic or elec. qng wala kyo bass
GTR-3


e|---------------------------------------------------------|
B|---------------------------------------------------------|
G|---------------------------------------------------------|
D|---------------------------------------------------------|
A|---------------------------------------------------------|
E|-9 9 9 9---7-7-7-7---4-4-4-4---2-2-2-2-------------------|


e|---------------------------------------------------------|
B|---------------------------------------------------------|
G|---------------------------------------------------------|
D|---------------------------------------------------------|
A|---------------------------------------------------------|
E|-9 9 9 9---7-7-7-7---4-4-4-4---2-2-2-2-------------------|

Na na na na na na na na ………….


e|---------------------------------------------------------|
B|---------------------------------------------------------|
G|-66------------------------------------------------------|
D|-66------66---------99-----------------------------------|
A|-44------66---------99-----------------------------------|
E|---------44---------77-----------------------------------|

Teka, kaya ba natin ‘to


e|---------------------------------------------------------|
B|---------------------------------------------------------|
G|-66------------------------------------------------------|
D|-66------66---------99-----------------------------------|
A|-44------66---------99-----------------------------------|
E|---------44---------77-----------------------------------|

Kung hindi na’y aakayin ka’t itatayo


e|---------------------------------------------------------|
B|---------------------------------------------------------|
G|-66------------------------------------------------------|
D|-66------66---------99-----------------------------------|
A|-44------66---------99-----------------------------------|
E|---------44---------77-----------------------------------|

yun ‘yon kaya hangang ngayon


e|---------------------------------------------------------|
B|---------------------------------------------------------|
G|---------------------------------------------------------|
D|-777777777-----------------------------------------------|
A|-777777777-----------------------------------------------|
E|-555555555-----------------------------------------------|

Tuloy-tuloy, tuloy-tuloy, tuloy
CHORUS


e|-------------------------------|-------------------------|
B|-------------------------------|-------------------------|
G|-11111111----------------------|-------------------------|
D|-22222222----------------------|-66666666----------------|
A|-22222222----------------------|-66666666----------------|
E|-------------------------------|-44444444----------------|

Wag kang bibitiw bigla Wag kang bibitiw bigla


e|-------------------------------|-------------------------|
B|-------------------------------|-------------------------|
G|-------------------------------|--22222222---------------|
D|-44444444----------------------|--22222222---------------|
A|-44444444----------------------|--00000000---------------|
E|-22222222----------------------|-------------------------|

Higpitan lang ang iyong kapit Maglalayag patungong langit


e|-------------------------------|-------------------------|
B|-------------------------------|-------------------------|
G|-11111111----------------------|-------------------------|
D|-22222222----------------------|-66666666----------------|
A|-22222222----------------------|-66666666----------------|
E|-------------------------------|-44444444----------------|

Wag kang bibitiw bigla Pikit ang ‘yong mga mata


e|-------------------------------|-------------------------|
B|-------------------------------|-------------------------|
G|-------------------------------|--22222222---------------|
D|-44444444----------------------|--22222222---------------|
A|-44444444----------------------|--00000000---------------|
E|-22222222----------------------|-------------------------|

Higpitan lang ang ‘yong kapit Maglalayag patungong langit

INTERLUDE
GTR-3


e|--------------------------------------------------------|
B|--------------------------------------------------------|
G|--------------------------------------------------------|
D|--------------------------------------------------------|
A|-4-4-4--2-4--------------------4-4-4--2-4-------6-6-----|
E|-------------4--2--4-4---------------------4-4----------|

then play GTR-3 and GTR riff nilagay ko na ha
kung GTR-3 or GTR-2 ung I-pplay mo ok
GTR-3


e|--------------------------------------------------------|
B|--------------------------------------------------------|
G|--------------------------------------------------------|
D|--------------------------------------------------------|
A|-4-4-4--2-4--------------------4-4-4--2-4-------6-6-----|
E|-------------4--2--4-4---------------------4-4----------|

| GTR-2 riff


e|--------------------------------------------------------|
B|-9-10-9s7-9h7s5-7-5s4-5-4s2-0---------------------------|
G|-------------------------------5s6~------4---4---4~~~~--|
D|-------------------------------------------6---6--------|
A|--------------------------------------------------------|
E|--------------------------------------------------------|

GTR-1


e|--------------------------------------------------------|
B|--------------------------------------------------------|
G|-666-4-6------------------------666-4-6----------8--8---|
D|-666-4-6----6----4----66--------666-4-6---6--6---8--8---|
A|-444-2-4----6----4----66--------444-2-4---6--6---6--6---|
E|------------4----2----44------------------4--4----------|

| GTR-2 riff


e|--------------------------------------------------------|
B|-------4--4-4---4--4s6----------------------------------|
G|-----6-----6--6-------------------------4-4 4-4---------|
D|2s4-4-------------------------------6----6---6---2-2----|
A|-------------------------------2s4-4-----------4--------|
E|--------------------------------------------------------|


e|-------------------------------------------------------|
B|-------------------------------------------------------|
G|-------------------------------------------------------|
D|--444444444--------------777777777---------------------|
A|--444444444--------------777777777---------------------|
E|--222222222--------------555555555---------------------|

GTR-2


e|--------------------------------------------------12---|
B|----------------------------5-5-7-7s9-7-9s10-9-10------|
G|------------------------4s6----------------------------|
D|--3s4--------------------------------------------------|
A|-------------------------------------------------------|
E|-------------------------------------------------------|

ROGEM – > ung C# d2 gumamit ako ng higher C#
ung nasa tab hindi 1 un 11 un.
GTR-1


e|-------------------------------------------------------|
B|-------------------------------------------------------|
G|-------------------------------------------------------|
D|--111111111111------6----------9-----------------------|
A|--111111111111------6----------9-----------------------|
E|---9-9-9-9-9-9------4----------7-----------------------|

Ating tinig,
GTR-2 Picking part 12 yan hindi 1-2 nxt 11 hindi 1-1 ok


e|--1212121212121212121212121212-11.11.11.11.111---------|
B|-------------------------------------------------------|
G|-------------------------------------------------------|
D|-------------------------------------------------------|
A|-------------------------------------------------------|
E|-------------------------------------------------------|

GTR 1


e|-------------------------------------------------------|
B|-------------------------------------------------------|
G|-------------------------------------------------------|
D|--111111111111------6----------9-----------------------|
A|--111111111111------6----------9-----------------------|
E|---9-9-9-9-9-9------4----------7-----------------------|

ating himig
GTR-2


e|--1212121212121212121212121212-11.11.11.11.111---------|
B|-------------------------------------------------------|
G|-------------------------------------------------------|
D|-------------------------------------------------------|
A|-------------------------------------------------------|
E|-------------------------------------------------------|


e|-------------------------------------------------------|
B|-------------------------------------------------------|
G|-------------------------------------------------------|
D|--111111111111------6----------9-----------------------|
A|--111111111111------6----------9-----------------------|
E|---9-9-9-9-9-9------4----------7-----------------------|

Abot langit
GTR-2


e|--1212121212121212121212121212-11.11.11.11.111---------|
B|-------------------------------------------------------|
G|-------------------------------------------------------|
D|-------------------------------------------------------|
A|-------------------------------------------------------|
E|-------------------------------------------------------|


e|-------------------------------------------------------|
B|-------------------------------------------------------|
G|-------------------------------------------------------|
D|--444444444--------------777777777---------------------|
A|--444444444--------------777777777---------------------|
E|--222222222--------------555555555---------------------|

Heto na tayo (heto na tayo) 2x

CHORUS


e|-------------------------------|-------------------------|
B|-------------------------------|-------------------------|
G|-11111111----------------------|-------------------------|
D|-22222222----------------------|-66666666----------------|
A|-22222222----------------------|-66666666----------------|
E|-------------------------------|-44444444----------------|

Wag kang bibitiw bigla Wag kang bibitiw bigla


e|-------------------------------|-------------------------|
B|-------------------------------|-------------------------|
G|-------------------------------|--22222222---------------|
D|-44444444----------------------|--22222222---------------|
A|-44444444----------------------|--00000000---------------|
E|-22222222----------------------|-------------------------|

Higpitan lang ang iyong kapit Maglalayag patungong langit


e|-------------------------------|-------------------------|
B|-------------------------------|-------------------------|
G|-11111111----------------------|-------------------------|
D|-22222222----------------------|-66666666----------------|
A|-22222222----------------------|-66666666----------------|
E|-------------------------------|-44444444----------------|

Wag kang bibitiw bigla Pikit ang ‘yong mga mata


e|-------------------------------|-------------------------|
B|-------------------------------|-------------------------|
G|-------------------------------|--22222222---------------|
D|-44444444----------------------|--22222222---------------|
A|-44444444----------------------|--00000000---------------|
E|-22222222----------------------|-------------------------|

Higpitan lang ang ‘yong kapit Maglalayag patungong langit


e|-------------------------------|-------------------------|
B|-------------------------------|-------------------------|
G|-11111111----------------------|-------------------------|
D|-22222222----------------------|-66666666----------------|
A|-22222222----------------------|-66666666----------------|
E|-------------------------------|-44444444----------------|

wooh ………………


e|-------------------------------|-------------------------|
B|-------------------------------|-------------------------|
G|-------------------------------|--22222222---------------|
D|-44444444----------------------|--22222222---------------|
A|-44444444----------------------|--00000000---------------|
E|-22222222----------------------|-------------------------|


e|-------------------------------|-------------------------|
B|-------------------------------|-------------------------|
G|-11111111----------------------|-------------------------|
D|-22222222----------------------|-66666666----------------|
A|-22222222----------------------|-66666666----------------|
E|-------------------------------|-44444444----------------|

Heto na tayo (heto na tayo) Heto na tayo (heto na tayo)


e|-------------------------------|-------------------------|
B|-------------------------------|-------------------------|
G|-------------------------------|--6-6-4-6-6-4-6----------|
D|-44x44x44----------------------|--4-4-2-4-4-2-4-6--------|
A|-44x44x44----------------------|----------------4--------|
E|-22x22x22----------------------|-------------------------|

Heto na tayo (heto na tayo)

hay kapagod ubos baon ko kakagwa ng tab mga tol xenxa na qng may di maganda
sa pandinig nyo pero tinnab ko ng mabuti yan hope u lyk it

fOR ANY SUGGESTION TXT ME 09187229082 ROGEM ( if you tym rate my tab)
INVITE Nyo na Din Ako Guitarizta_rogem@yahoo.com

To play the most songs, including Bitiw by Sponge Cola by ukulele, the most crucial basic ukulele chords to learn are C chord, D chord, G chord, and Em chord.
These set you up to play a ton of songs, and each of them is easy to learn.

Leave a Reply

Your email address will not be published.