Blackhole by Beck Ukulele Chords

Posted on

If you are searching for Blackhole ukulele chords, you have come to the right place.
You can play versatile instrument Blackhole using ukulele or guitar.
This song by Beck can also be played by that instruments.
=

Blackhole chords has rhythm and included in Mellow Gold (1994) album.
You can also get another musical style, including jazz ukulele chords, country music ukulele chords, pop ukulele chords, world music ukulele chords, and rock ukulele chords here.

Blackhole by Beck Ukulele Chords

Track: 12. BLACKHOLE

strum open a few times


G--2/4-0--2/4-0-0-0--/7-7-7-7-5-4-
G--2/4-0--2/4-0-0-0--/7-7-7-7-5-4-
G--2/4-0--2/4-0-0-0--/7-7-7-7-5-4-
D---------------------------------
G---------------------------------
D---------------------------------
G--2/4-0--2/4-0----/7-7-7-7-9-4-
G--2/4-0--2/4-0----/7-7-7-7-9-4-
G--2/4-0--2/4-0----/7-7-7-7-9-4-
G-------------------------------
G-------------------------------
D-------------------------------
G-/12-12-12-12-11-11-11-11--5-5-5-5-9-9-9-9--4-4-4-4--2-2-0-
G-/12-12-12-12-11-11-11-11--5-5-5-5-9-9-9-9--4-4-4-4--2-2-0-
G-/12-12-12-12-11-11-11-11--5-5-5-5-9-9-9-9--4-4-4-4--2-2-0-
D-----------------------------------------------------------
G-----------------------------------------------------------
D-----------------------------------------------------------

outro:


G-----0-0---
G-----0-0---
G-----0-0---

[D-2/4/5-5—]


G-----0-0---

[D-2/4/5-5—]


G-0-0----0---0--0-
G-0-0----0---0--0-
G-0-0----0---0--0-
D-53--3/9---125-
G-0-0----0---0--0-
D-53--3/9---125-

Windy Windy
looking for a better home
gotta be gotta be
running out of lightbulbs
crowded crowded
open to a wastecan
yellow car yellow car
better be inside there

(guitar break)

wake up wake up
nothing’s gonna harm you
glass wall glass wall
standing on the furniture
little boy little boy
laying on a sleeping bag
watching watching
through the cracks of his eyelids

(guitar break)

stranger stranger
feeling like a broken stone
lost him lost him
standing on the orange chairs
alphabet alphabet
can’t afford a telephone
black hole black hole
nothing’s gonna harm you

To play the this songs, including Blackhole by Beck by ukulele, the most crucial basic ukulele chords to learn are C chord, D chord, G chord, and Em chord.
These set you up to play a a lot of songs, and each of them is easy to learn.

Leave a Reply

Your email address will not be published.