Blame It on Me by Cosmo Jarvis Ukulele Chords

Posted on

If you are searching for Blame It on Me ukulele chords, you’ve come to the right site.
You can play versatile instrument Blame It on Me using ukulele or guitar.
This song by Cosmo Jarvis can also be played by that instruments.
=

Blame It on Me chords has rhythm and included in Is the World Strange or Am I Strange? (2011) album.
You can also get other musical genres, including jazz ukulele chords, country music ukulele chords, pop ukulele chords, world music ukulele chords, and rock ukulele chords here.

Blame It on Me by Cosmo Jarvis Ukulele Chords

Blame it on me – Cosmo Jarvis

Tabbed by Milo Larkin

I also tabbed out the mandolin parts which can be easily transposed onto guitar.

Intro


E|-3-------------------3-| |--------|
A|-2-------------------2-| |--------|
D|-0--4/5-5-5-4-2-0----0-| x2 |--4/5-5-| x7
G|-0-----------------0-0-| |--------|

Chorus
Blame it on me, until the sun sets, blame it on me, and all my kind

Blame it on me, until the willow weeps, blame it on me but I don’t m[(Bm)]ind[(Am)]

Link (G)


E|-3-2-0-------3-| E|-3-2-0------|
A|-------5-2---2-| A|-------5-2--|
D|-------------0-| X2 D|------------|
G|-----------0-0-| G|------------|


Verse

Without a trace you fall into the endless cave,

Dropping out again without a friend to save.

And all this time I really thought it was a joke,

But first opinions always grab you by the throat.

Pre-Chorus

And it’s so nice to see you now, playing to the sea

Without a single worry now, just blame it all on[(Em)] me.

Chorus

Blame it on me, until the sun sets, blame it on me, and all my kind

Blame it on me, until the willow weeps, blame it on me but I don’t m[(Bm)]ind[(Am)]

(Link)


Verse

I saw you standing there amongst the hopeless crowd,

Expression of concern, a heart beating too loud.

And now I know it seems the world is hating you,

And all you’ve got is just a million things to prove.

Pre-Chorus

And it’s so nice to see you now, playing to the sea

Without a single worry now, just blame it all on[(Em)] me.

Chorus

Blame it on me, until the sun sets, blame it on me, and all my kind

Blame it on me, until the willow weeps, blame it on me but I don’t m[(Bm)]ind[(Am)]


E|-3-2-0-------3-|
A|-------5-2---2-|
D|-------------0-|
G|-----------0-0-|
E|-3-------f-|
A|---2-3---u-|
D|---------c-|
G|---------k-|



E|-----------------| E|-----------------| ||
A|-----------------| A|-----------------| |
D|-5-0-1-2-4-4-----| X2 D|-5-4-2-0-2-2-----| x2 | / x3
G|-----------------| G|-----------------| ||
E|-----------------|
A|-----------------|
D|-1--1-2-4--44444-|
G|-----------------|
E|-----------------|
A|-----------------|
D|-5-5-5-55-20-2-5-| (x3 for mando, guitar, bass)
G|-----------------|
E|-----------------|
A|-----------------|
D|-5-2-0-----------|
G|-------4-0-------|

Chorus Variation

Blame it on me! Blame it on me! Blame it on me! Blame it on me!

Blame it on me! Blame it on me! Blame it on me! Blame it on me!

Blame it on me! Blame it on me! Blame it on me! Blame it on me!

Blame it on me! Blame it on me! Blame it on me! Blame it on me!

Chorus

Blame it on me, until the sun sets, blame it on me, and all my kind

Blame it on me, until the willow weeps, blame it on me but I don’t m[(Bm)]ind[(Am)]

Blame it on me but I don’t m[(Bm)]ind[(Am)]

To play the most songs, including Blame It on Me by Cosmo Jarvis by ukulele, the most important basic ukulele chords to learn are C chord, D chord, G chord, and Em chord.
These set you up to play a many of songs, and each of them is easy to learn.

Leave a Reply

Your email address will not be published.