Bluer Than Blue by Michael Johnson Ukulele Chords

Posted on

If you are looking for Bluer Than Blue ukulele chords, you already come to the best site.
You can play versatile instrument Bluer Than Blue using ukulele or guitar.
This song by Michael Johnson can also be played by that instruments.
=

Bluer Than Blue chords has rhythm and included in Then & Now (1997) album.
You can also get other musical style, including jazz ukulele chords, country music ukulele chords, pop ukulele chords, world music ukulele chords, and rock ukulele chords here.

Bluer Than Blue by Michael Johnson Ukulele Chords

Performed by Michael Johnson
Tabbed by Baddguitar

Riff#1 Riff#2 Riff#3 R#4


|--0---3-2-0-2---|--0----0-2---|--3----------3---|--0-----------|
|--1-------------|--1--3-------|--0----------0---|--0-----------|
|--2-------------|--2----------|--0----------0---|--0-------0---|
|--2-------------|--2----------|--0------0-2-3---|--2---2h4-----|
|--0-------------|--0----------|--2--------------|--2-----------|
|----------------|-------------|--3-----3--------|--0-----------|

Chorus Riff


|--3---------------2---------------| Some Chords: G7/F: xx3003
|--0---------------0---------------| B7/D#: xx1202
|--0---------------0---------------| A/C#: x4222x
|--0------0h2--0---0------0h2--0---| C/D: xx0010
|--2---------------2---------------|
|--3---------------3---------------|
------------------------------------------------------------------

Intro:


|--0--3--5--3--2--5--7----|-3--------3-5-7--5--3--2--|
|--1-----2-----3-----4--7-|-5------------------------|
|--0-----2-----2-----4----|-4--------4-5-7--5--4--2--|
|--2-----2-----0-----4----|--------------------------|
|--3-----0----------------|--------------------------|
|-------------------------|-0---0-0------------------|


|--0--3--5--3--2--5--7--5-|-0--|
|--1-----2-----3-----4----|-0--|
|--0-----2-----2-----4----|-1--|
|--2-----2-----0-----4----|-2--|
|--3----------------------|-2--|
|-------------------------|-0--|


E E7 A Am (Riff1)
After you go, I can catch up on my reading
E E7 A Am (Riff2)
After you go, I’ll have a lot more time for sleeping
G (Riff#3) G7/F Cmaj7 C
And when you’re gone looks like things are gonna be a lot easier
Bm7 Em (R#4) Am7 Bm7 C D
Life will be a breeze, you know. I really should be glad


G (Chorus Riff) Gmaj7
But I’m bluer than blue. Sadder than sad
You’re the only light this empty room has ever had
Life without y[B7/D#]ou is gonna be…
Bluer than blue[A/C#][B7/D#]


E E7 A Am (Riff1)
After you go, I’ll have a lot more room in my closet
E E7 A Am (Riff2)
After you go, I’ll stay out all night long if I feel like it
G (Riff#3) G7/F Cmaj7 C
And when you’re gone I can run through the house screamin’
And no one will ever hear me. I really should be glad.


G (Chorus Riff) Gmaj7
But I’m bluer than blue. Sadder than sad
You’re the only light this empty room has ever had
Life without y[B7/D#]ou is gonna be…
Bluer than …


I don’t have to miss no TV shows I can start my whole life over
Change the numbers on my telephone But the nights will [A/C#]sure be colder.


Dsus4 G (Chorus Riff) Gmaj7
But I’m bluer than blue. Sadder than sad
You’re the only light this empty room has ever had
Life without y[B7/D#]ou is gonna be…
Bluer than blue [A/C#] Bluer [B7/D#]than blue

[C/D]Bluer than blue

To play the most songs, including Bluer Than Blue by Michael Johnson by ukulele, the most crucial basic ukulele chords to learn are C chord, D chord, G chord, and Em chord.
These set you up to play a a lot of songs, and each of them is easy to learn.

Leave a Reply

Your email address will not be published.