Bottles to the Ground by NOFX Ukulele Chords

Posted on

If you are searching for Bottles to the Ground ukulele chords, you already visit to the best site.
You can play versatile instrument Bottles to the Ground using ukulele or guitar.
This song by NOFX can also be played by that instruments.
=

Bottles to the Ground chords has rhythm and included in Pump Up the Valuum (2000) album.
You can also get another musical genres, including jazz ukulele chords, country music ukulele chords, pop ukulele chords, world music ukulele chords, and rock ukulele chords here.

Bottles to the Ground by NOFX Ukulele Chords


Always remember the CRA is your friend, and minority 3 ROX
Slide~ (slides in this song don’t have to be used it gives it flair tho ;))
Hammerh
Pull offp
Bendb
Pause+

[-----------------------------------------------------------------------------------------------]
[---------00---------00-------00------00------11-------11------11------11---------------]
[---------00---------00-------00------00------00-------00------00------00---------------]
[-----22--------22--------22------22-------22------22------22------22-------------------]
[-----------------------------------------------------------------------------------------------]
[-----------------------------------------------------------------------------------------------]

[----------------------------------------------------------------------------------]
[---------00---------00-------00------00------11-------11------11------11--]
[---------00---------00-------00------00------00-------00------00------00--]
[-----22--------22--------22------22-------22------22------22------22------]
[----------------------------------------------------------------------------------]
[----------------------------------------------------------------------------------]

[-----------------------------------------------------------------------------------------------]
[-----------------------------------------------------------------------------------------------]
[-----------------------------------------------------------------------------------------------]
[---22+22+22+33+33+33+22+22+22+33+33+33-------------------------------------]
[---22+22+22+22+22+22+22+22+22+22+22+22-------------------------------------]

[—00+00+00+00+00+00+00+00+00+00+00+0~~~~~~~~~~~~~~~~~~~~~~~~~~~~~~~~~~~~~~]


[---------------------------------------------------------------------------------------------------------]
[-------00-----00-----00-----00-------00----00------00----00'----00-------00------00-----00-]
[-------00-----00-----00-----00-------00----00------00----00-------00-------00------00-----00-]
[----22----22------22----22------11-----11------11----11-------00------00-------00------00----]
[---------------------------------------------------------------------------------------------------------]
[---------------------------------------------------------------------------------------------------------]
[---------------------------------------------------------------------------------------------------------]
[-----------00----------00-------00-------00-------11--------11--------11-----11------11------11]
[-----------00----------00-------00-------00-------00--------00--------00-----00------00------00]
[---------------------------------------------------------------------------------------------------------]
[------44--------44--------44-------44-------33-------33--------33--------33------33-----33-----]
[---------------------------------------------------------------------------------------------------------]


[---------------------------------------------------------------------------------------]
[---------------------------------------------------------------------------------------]
[-------------5555-------------------] [5555---------------------------------------------]
[-55---33---5555--55---] [55---] [33-5533------------------------55555-------------]
[-55---33---3333--55--- 55--- 33-3333-0------ 77777777--- 33333------------ ]
[-33-0-11-0--------33-0-33-0- 11-0-------------55555555------------------------]

[------------------------------------------------------------------------------------------------------------]
[-----------------------------------------play this twice before the next line-------------------------]
[------------------------------------------------------------------------------------------------------------]

[555555555555777777777777101010101010555555555555777777777777101010101010]
[555555555555777777777777101010101010555555555555777777777777101010101010]
[333333333333555555555555888888888888333333333333555555555555888888888888]


[----------------------------------------------------------------------------------------------------------- ]
[----------------------------------------------------------------------------------------------------------- ]
[----------5555] [--------------] [5555--------------5555-------------------] [55555---------------------- ]
[-5553335555---------------5555----------3335555555---7777777755555-----------------------]
[-555333333355555553333333555-5553333333555---7777777733333-----------------------]
[-333111------333-333111-------333-333111-----333---55555555-------------------------------]

Legend

Guitar 1
Intro x2
Post Intro 1 x 2
Verse x 1
Chorus x 1
Intro x 2
Post intro x 1
Verse x 1
Chorus x 1
Post Chorus x 1

Guitar 2
Post Intro 2 x 2
Verse x 1
Chorus x 1
Intro x 2
Post intro x 1
Verse x 1
Chorus x 1
Post Chorus x 1

Lyrics
“Bottles To The Ground”

You know it (know it, know it)
When it’s over (over, over)
Doors are closing (closing, closing)
Feel the sober (sober, sober)
Staring at you (at you, at you)
You know you’d better take one last good look

One more round then it’s bottles to the ground
Smashing of the glass what a supersonic sound
Gotta pull the plug when it’s time to die
A wo-o wo-o wo-o
Bottles to the ground

Theres a suitcase (suitcase, suitcase)
On the sidewalk (sidewalk, sidewalk)
Theres some records (records, records)
In a milkcrate (milkcrate, milkcrate)
She’ll be staying (staying, staying)
You’ll be throwing whiskeys over one lip

One more round then it’s bottles to the ground
Smashing of the glass an perfect imperfect sound
We gotta pay the piper when the rats are gone
A wo-o wo-o wo-o
Bottles to the ground

One more round then it’s bottles to the ground
One more round then it’s bottles to the ground
One more round then it’s bottles to the ground
One more round then it’s bottles to the ground
One more round then it’s bottles to the ground
One more round then it’s bottles to the ground
One more round then it’s bottles to the ground
One more round then it’s bottles to the ground
One more round then it’s bottles to the ground
One more round then it’s bottles to the ground
One more round then it’s bottles to the ground
One more round then it’s bottles to the ground
One more round then it’s bottles to the ground
One more round then it’s bottles to the ground

WO-O-O BOTTLES TO THE GROUND!!!!!!

To play the most songs, including Bottles to the Ground by NOFX by ukulele, the most crucial basic ukulele chords to learn are C chord, D chord, G chord, and Em chord.
These set you up to play a many of songs, and each of them is easy to learn.

Gravatar Image
Like to play Ukulele and Sudoku Game

Leave a Reply

Your email address will not be published. Required fields are marked *