Boulevard of Broken Dreams by Green Day Ukulele Chords

Posted on

If you are looking for Boulevard of Broken Dreams ukulele chords, you have visit to the right site.
You can play versatile instrument Boulevard of Broken Dreams using ukulele or guitar.
This song by Green Day can also be played by that instruments.
=

Boulevard of Broken Dreams chords has rhythm and included in American Idiot (2004) album.
You can also get another musical style, including jazz ukulele chords, country music ukulele chords, pop ukulele chords, world music ukulele chords, and rock ukulele chords here.

Boulevard of Broken Dreams by Green Day Ukulele Chords

Introduction:

[Fm, G#, Eb, Bb]x2

Verse 1:
I walk a lonely road
The only one that I have ever known
Don’t know where it goes
But it’s home to me and I walk alone

Riff:

E|3-4|8-6|3-4|


B|---|---|---|
G|---|---|---|
D|---|---|---|
A|---|---|---|
E|---|---|---|

Verse 2:
I walk this empty street
On the Boulevard of Broken Dreams
Where the city sleeps
and I’m the only one and I walk alone

x2

Post Chorus:

Fm, G# ,Eb Bb
I walk alone…I walk alone

Fm, G# ,Eb Bb
I walk alone, I walk a…

Chorus:
My shadow’s the only one that walks beside me
My shallow heart’s the only thing that’s beating
Sometimes I wish someone out there will find me
’Til then I walk alone.

Chorus 2:
Ah-ah, Ah-ah, Ah-ah, Aaah-ah,
Ah-ah, Ah-ah, Ah-ah

Verse 3:
I’m walking down the line
That divides me somewhere in my mind
On the border line
Of the edge and where I walk alone

Fm, G#, Eb, Bb

Verse 4:
Read between the lines
What’s fucked up and everything’s alright
Check my vital signs
To know I’m still alive and I walk alone…

[Post chorus]

Ah-ah, Ah-ah, Ah-ah, Aaah-ah
Ah-ah, Ah-ah
I walk alone

I walk a…

Solo:


E|---3-3-4-4|---8-8-6-6|-------3-3-4-4|4-4-4-4-3-3---|
B|6-6-------|4-4-------|6-6-6-6-------|-----------6-6| [Repeat this]
G|----------|----------|--------------|--------------|
D|----------|----------|--------------|--------------|
A|----------|----------|--------------|--------------|
E|----------|----------|--------------|--------------|


E|---3-4|---8-6|-------3-3-4-4|4-4-4-4-3-3---|
B|6-6---|4-4---|6-6-6-6-------|-----------6-6|
G|------|------|--------------|--------------|
D|------|------|--------------|--------------|
A|------|------|--------------|--------------|
E|------|------|--------------|--------------|


E|---3-4|---8-6|8-8-8-8-8-8-8-8-8-8-8-8-8-8-8|
B|6-6---|4-4---|-----------------------------|
G|------|------|-----------------------------|
D|------|------|-----------------------------|
A|------|------|-----------------------------|
E|------|------|-----------------------------|

[Repeat verse 2]

Outro:


E|----------|-----------|-----------|
B|----------|-----------|-----------|
G|----------|-----------|-----------| [Repeat three times then...]
D|----------|-----------|-----------|
A|-----4-4-4|6-6-6-5-5-5|-----------|
E|1-1-1-----|-----------|4-4-4-0-0-0|


E|----------|-----------|-------|
B|----------|-----------|-------|
G|----------|-----------|-------|
D|----------|-----------|-------|
A|-----4-4-4|6-6-6-5-5-5|-------|
E|1-1-1-----|-----------|4-4-0-0|

Hope this helps 🙂

To play the this songs, including Boulevard of Broken Dreams by Green Day by ukulele, the most crucial basic ukulele chords to learn are C chord, D chord, G chord, and Em chord.
These set you up to play a a lot of songs, and each of them is easy to learn.

Leave a Reply

Your email address will not be published.