Brick by Brick by Arctic Monkeys Ukulele Chords

Posted on

If you are looking for Brick by Brick ukulele chords, you already come to the best site.
You can play versatile instrument Brick by Brick using ukulele or guitar.
This song by Arctic Monkeys can also be played by that instruments.
=

Brick by Brick chords has rhythm and included in Suck It and See (2011) album.
You can also find another musical style, including jazz ukulele chords, country music ukulele chords, pop ukulele chords, world music ukulele chords, and rock ukulele chords here.

Brick by Brick by Arctic Monkeys Ukulele Chords

Email: 123nebojsa123@gmail.com

Tuning: Standard (EADGBe)

Intro:

gt.1 and gt.2


e ------|-----------------|
b ------|-----------------|
g --1-4-|-4-4-4-1-1-1-----|
d --2-5-|-5-5-5-2-2-2-----| repeat
a --2-5-|-5-5-5-2-2-2-----|
E --0-3-|-3-3-3-0-0-0-x-x-|

Chorus:

gt.1


e ------------------------------------|
b -------10-10-------10-10------------|
g -12-12-------12-12-------12-9-9-9-9-|
d ------------------------------------| 4x
a ------------------------------------|
E ------------------------------------|

gt.2


e ------------------------------------|
b ------------------------------------|
g --6-6---4-4---1-1-1-1-1-1-----------|
d --7-7---5-5---2-2-2-2-2-2-----------| 4x
a --7-7---5-5---2-2-2-2-2-2-----------|
E --5-5-x-3-3-x-0-0-0-0-0-0-----------|

gt.1


e -------------------------------------------------------------|------|
b --10---------------10-------------10------12-11-10-9---------|------|
g -----12-9-9-9-9-------12-9-9-9-9---------------------12-11-10|----4-|
d -------------------------------------------------------------|--2-5-|
a -------------------------------------------------------------|--2-5-|
E -------------------------------------------------------------|--0-3-|

gt.2


e --------------------------------------|
b --------------------------------------|
g --6-3-1--1-1-1-----6-4-1--1-1-1----6--|
d --7-5-2--2-2-2-----7-5-2--2-2-2----7--|
a --7-5-2--2-2-2-----7-5-2--2-2-2----7--|
E --5-3-0--0-0-0-----5-3-0--0-0-0----5--|

Break:

gt.1 (gt.2 plays Intro chords)


e --------------------------------------------------------------------------|
b --12--------------------------15b17--15b17-12-----------------------------|
g --14b15-14b16---14b16p12---12---------------------14p12h14--14b16p12------|
d ------------------------14----------------------14-------------------14-12|
a --------------------------------------------------------------------------|
E --------------------------------------------------------------------------|
e -------------------|
b ---------12--------|
g -----12-----12-----|
d --14-----------14--|
a -------------------|
E -------------------|

gt.2 plays Intro chords

Chorus 2.

Break 2:

gt.1 (gt.2 plays Intro chords)


e ---------------------|-----------------------|-----------------|
b ---------------------|-15b17r15--12----------|-----------------|
g -9-9~----------------|--------------13-12----|-----7b9r7-------|
d ------7~-------------|-----------------------|-----------------|
a ---------5s7s5s7s5s7-|-----------------------|-----------5s7s5~|
E ---------------------|-----------------------|-----------------|

Chorus 3. (This is played till the end)

To play the this songs, including Brick by Brick by Arctic Monkeys by ukulele, the most important basic ukulele chords to learn are C chord, D chord, G chord, and Em chord.
These set you up to play a many of songs, and each of them is easy to master.

Leave a Reply

Your email address will not be published.