Busy Man by Steven Curtis Chapman Ukulele Chords

Posted on

If you are searching for Busy Man ukulele chords, you’ve come to the right place.
You can play versatile instrument Busy Man using ukulele or guitar.
This song by Steven Curtis Chapman can also be played by that instruments.
=

Busy Man chords has rhythm and included in For the Sake of the Call (1990) album.
You can also get other musical style, including jazz ukulele chords, country music ukulele chords, pop ukulele chords, world music ukulele chords, and rock ukulele chords here.

Busy Man by Steven Curtis Chapman Ukulele Chords


Word & Music by Steven Curtis Chapman
Copyright @ 1990 Sparrow Song
Tabbed by George Kim (Doingthewalk@yahoo.com)

Intro: (Guitar 1)


E--------------0---------0--------0---------------------0------
B--------------0---------0--------0---------------------0---0--
G-----2--2-----2---2-----4---4/6--6-----------2---2-----2---2--
D-----2--2--4------4/5-------5/7--------------2---2--4------4--
A-----------4-------------------------------0--------4------4/-
E------------------------------------0--3----------------------

(Guitar 2 elect.)


E-------------------------------------------
B------------------------0------------------
G------------------------4------------------
D----------0---------/5-----5----------0----
A--------2---4---0----------5--------2---4--
E----0/3------------------------0/3---------


E---------------0----------0-----------0---------------------0---------0
B---------------0---0---0--0-----0-----0-----------------0---0---0--0--0
G-----2---2-----2---2------4-----4/6---6-------2---2-----2---2------4--4
D-----2---2--4------4---5--5-------------------2---2--4------4--/5--5--5
A--0---------4--------------------------------0-------4-----------------
E----------------------------------------0--3---------------------------

Verse 1:
Aadd9 Bm Aadd9(nr) Bm

Aadd9(nr)
[E5/B]
Chorus:
[E5/B] [D/F#] [A/E]
[E5/B]
[D/A] [E/B]
[D/F#] [A/E] [D/A] [E/B]

[D/A]
[D/A] [E/b] [A5/E]

Bridge:
[A/E]
[A/E] [D/F#] [A/E]
[A/E]



[E/G#]



[E/G#]

To play the most songs, including Busy Man by Steven Curtis Chapman by ukulele, the most crucial basic ukulele chords to learn are C chord, D chord, G chord, and Em chord.
These set you up to play a many of songs, and each of them is easy to learn.

Leave a Reply

Your email address will not be published.