Call on Me by Lou Reed Ukulele Chords

Posted on

If you are looking for Call on Me ukulele chords, you’ve visit to the best place.
You can play versatile instrument Call on Me using ukulele or guitar.
This song by Lou Reed can also be played by that instruments.
=

Call on Me chords has rhythm and included in The Raven (2003) album.
You can also find another musical genres, including jazz ukulele chords, country music ukulele chords, pop ukulele chords, world music ukulele chords, and rock ukulele chords here.

Call on Me by Lou Reed Ukulele Chords


e|--------------------------------------------------------------------|
B|-1-0----------------------------------------------------------------|
G|-----0--------------------------------------------------------------|
D|-------0------------------------------------------------------------|
A|--------------------------------------------------------------------|
E|--------------------------------------------------------------------|


e|-------------------------------------------------------------------|
B|-1-0-----------------------1--0------------------------------------|
G|-----0--------------------------0----------------------------------|
D|-------0--------------------------2--------------------------------|
A|-------------------------------------------------------------------|
E|-------------------------------------------------------------------|

Caught in the crossbow of ideas and journeys
Sit here reliving the other self’s mournings
Caught in the crossbow of ideas and dawnings
Stand I


e|------------------------------------------------------------------|
B|-1-0-----------------------1--0-----------------------------------|
G|-----0--------------------------0---------------------------------|
D|-------0--------------------------2-------------------------------|
A|------------------------------------------------------------------|
E|------------------------------------------------------------------|

Reliving the past of the maddening impulse
Violent upheaval, the pure driven instinct
The pure driven murder, the attraction of daring
Stand I

Why didn’t you call on me?
Why didn’t you call on me?
Why didn’t you call on me?
Why didn’t you call?

[G/F#]

A wild being from birth, my spirit spurns control

Wondering the wide earth searching for my soul
Dimly peering, I would surely find
What could there be more purely bright

In truth’s day-star?

Why didn’t you call on me?
Why didn’t you call on me?
Why didn’t you call on me?

Why didn’t you call on me?
Why didn’t you call on me?
Why didn’t you call on me?

N.C.
Why didn’t you call?

To play the most songs, including Call on Me by Lou Reed by ukulele, the most important basic ukulele chords to learn are C chord, D chord, G chord, and Em chord.
These set you up to play a many of songs, and each of them is easy to master.

Gravatar Image
Like to play Ukulele and Sudoku Game

Leave a Reply

Your email address will not be published. Required fields are marked *