Candyman by Grateful Dead Ukulele Chords

Posted on

If you are looking for Candyman ukulele chords, you’ve visit to the best site.
You can play versatile instrument Candyman using ukulele or guitar.
This song by Grateful Dead can also be played by that instruments.
=

Candyman chords has rhythm and included in American Beauty (1970) album.
You can also get other musical genres, including jazz ukulele chords, country music ukulele chords, pop ukulele chords, world music ukulele chords, and rock ukulele chords here.

Candyman by Grateful Dead Ukulele Chords

[Intro Riff] x 3


e|-------------------------------------------|
B|-------11-11------10----10-----------------|
G|--------------------------------9-9-7-5----|
D|--8s10-------8s10----10----8s10------------|
A|-------------------------------------------|
E|-------------------------------------------|

[Intro End Riff] x 1


e|-------------------------------------------------------------------------------|
B|-------11-11------10----10----------------------12-12-12-----------------------|
G|--------------------------------9-9--9-9-9-9s12----------12--------------------|
D|--8s10-------8s10----10----8s10------------------------------------------------|
A|------------------------------------------------------------------0-0--2-2--3--|
E|--------------------------------------------------------------3-3--------------|

[riff to begin verses] [riff before last chorus section]


e|----------------------| e|-----------------|
B|----------------------| B|-1---------------|
G|----------------------| G|---2-----0-------|
D|----------------------| D|-----3-----2-----|
A|------0-0--2-2--3-3---| A|-------------3---|
E|--3-3-----------------| E|-----------------|

[Verse 1]
Come all you pretty women, with your hair a-hanging down
Open up your window, cause the Candy Man’s in town
Come on boys and gamble, roll those laughing bones
Seven come eleven, Boys, I’ll take your money home


Look out, look out, the Candy Man
Here he comes and he’s gone again
Pretty lady ain’t got no friend till the,
Candy Man comes around aga—in

[Verse 2]
I come in from Memphis, where I learned to talk the jive
When I get back to Memphis, be one less man alive
Good morning Mr. Benson, I see you’re doing well
If I had me a shotgun, I’d blow you straight to hell


Look out, look out, the Candy Man
Here he comes and he’s gone again
Pretty lady ain’t got no friend till the,
Candy Man comes around aga—in

[Solo over verse]




[Solo over Chorus]




[Verse 3]
Come on Boys and wager, if you have got the mind
If you’ve got a dollar, Boys, lay it on the line
Hand me my old guitar, pass the whiskey and rye
Won’t you tell everybody you meet that the Candy Man’s in to—wn


Look out, look out, the Candy Man
Here he comes and he’s gone again
Pretty lady ain’t got no friend till the,
Candy Man comes around aga—in


Look out, look out, the Candy Man
Here he comes and he’s gone again
Look out, look out, the Candy Man (fades out)

To play the most songs, including Candyman by Grateful Dead by ukulele, the most crucial basic ukulele chords to learn are C chord, D chord, G chord, and Em chord.
These set you up to play a many of songs, and each of them is easy to learn.

Leave a Reply

Your email address will not be published.