Carbonized in Cruciform by khoa Ukulele Chords

Posted on

If you are looking for Carbonized in Cruciform ukulele chords, you’ve visit to the right site.
You can play versatile instrument Carbonized in Cruciform using ukulele or guitar.
This song by khoa can also be played by that instruments.
=

Carbonized in Cruciform chords has Ballade rhythm and included in Love Ire & Song (2008) album.
You can also get other musical genres, including jazz ukulele chords, country music ukulele chords, pop ukulele chords, world music ukulele chords, and rock ukulele chords here.

Carbonized in Cruciform by khoa Ukulele Chords

Ritual

Transcribed by Seth Sanders (livetolieanotherday@hotmail.com)

Gtr I (C F Bb Eb G C) – ‘Rhythm Guitar I’
Gtr II (C F Bb Eb G C) – ‘Rhythm Guitar II’
Gtr III (C F Bb Eb G C) – ‘Lead Guitar’
Gtr IV (C F Bb Eb G C) – ‘Acoustic Guitar’

Acoustic Intro
Q140
[D5/Bb][Amadd9/Eb]
[3/4] Gtr IV


||----------7---|---------7---|------------|---------7---|---------7----|
||o-------------|-------------|---------------|-------------|--------------|
||------5-----5-|-----5-----5-|---------2-----|-----5-----5-|-----5-----5--|
||----7---7-----|---7---7-----|---7---------0-|---7---7-----|---7---7------|
||o-0-----------|-6-----------|-5---------1---|-0-----------|-6------------|
||--------------|-------------|---------------|-------------|--------------|

[D5/Bb]


|------------|---------7---|---------7---|
|---------------|-------------|-------------|
|---------2-----|-----5-----5-|-----5-----5-|
|---7---------0-|---7---7-----|---7---7-----|
|-5---------1---|-0-----------|-0-----------|
|---------------|-------------|-------------|

[Am/Eb] [Cmaj7sus4b13/F]


|---------7---|---------7---|-------------|
|-------------|-------------|---------0---|
|-----5-----5-|-----5-----5-|-----1-----1-|
|---7---7-----|---7---7-----|---3---3-----|
|-6-----------|-6-----------|-------------|
|-------------|-------------|-1-----------|

E E E E E E E E E E E E E E E [A5G#m/B]S S E E


|-------------|-------------|----------------||
|---------0---|-------------|-----9-------9-o||
|-----1-----1-|---------4---|----------------||
|---3---3-----|-----6-----6-|---6-------9----||
|-------------|---7---7-----|-------0-------o||
|-1-----------|-0-----------|-0-----0-7------||

Electric Guitar Intro

[4/4] Gtrs I, II
PM


|----3----|

H. E E E


|---------------------------------------------|
|---------------------------------------------|
|-9-------------------------------------------|
|-7----------------------------------3----2---|
|-x-----------------------------6----3----2---|
|-5-----------------------------4----1----0---|

|
| Gtr III
| PM—–| TPTPTP
| S S S S S S S S S S S S S S S S


|---------------------------------------------|
|----------------5h10-10-10-10-10-10---10---5h|
|----------5-5--------------------------------|
|-7--7-7-7-----7------------------------------|
|---------------------------------------------|
|---------------------------------------------|

Tremolo pick.

[B/Eb]


|-----------------------------------|
|-----------------------------------|
|-----------------/8----------------|
|-3---------------/9----------------|
|-3---------------/6----------------|
|-1---------------------------------|

|
| S S S S S S S S S S S S S S S S


|-----------------------------------|
|-6-6-6-6-6-6-6-3h5-5-5-5-5-5-5-5--|
|-----------------------------------|
|-----------------------------------|
|-----------------------------------|
|-----------------------------------|

Gtr I
PM


|----3----|

H. E E E


|---------------------------------------------|
|---------------------------------------------|
|-9-------------------------------------------|
|-7----------------------------------3----2---|
|-x-----------------------------6----3----2---|
|-5-----------------------------4----1----4---|

|
| PM—–| TPTPTP
| S S S S S S S S S S S S S S S S


|---------------------------------------------|
|----------------5h10-10-10-10-10-10---10---5h|
|----------5-5--------------------------------|
|-7--7-7-7-----7------------------------------|
|---------------------------------------------|
|---------------------------------------------|

|
| Gtr II
| PM


| |----3----|

| H. E E E


|---------------------------------------------|
|---------------------------------------------|
|-9-------------------------------------------|
|-7----------------------------------3----2---|
|-x-----------------------------6----3----2---|
|-5-----------------------------4----1----4---|

Q Q Q Q


|----------------------------------------------|
|----------------------------------------------|
|---------/5-----------4-----------------------|
|-2-------/x-----------x-----------6-----------|
|-2-------/3-----------2-----------x-----------|
|-0--------------------------------4-----------|

|
| S S S S S S S S S S S S S S S S


|----------------------------------------------|
|-6-6-6-6S13-13-13-13-12-12-12-12--------------|
|---------------------------------13-13-13-13-|
|----------------------------------------------|
|----------------------------------------------|
|----------------------------------------------|

|
| Q Q Q Q


|----------------------------------------------|
|----------------------------------------------|
|----------------------------------------------|
|-2-------/7-----------6-----------2-----------|
|-2-------/x-----------x-----------x-----------|
|-0-------/5-----------4-----------0-----------|

Gtrs I, II
PM


|----3----|

H. E E E


|---------------------------------------------|
|---------------------------------------------|
|-9-------------------------------------------|
|-7----------------------------------3----2---|
|-x-----------------------------6----3----2---|
|-5-----------------------------4----1----0---|

|
| PM—–| TPTPTP
| S S S S S S S S S S S S S S S S


|---------------------------------------------|
|----------------5h10-10-10-10-10-10---10---5h|
|----------5-5--------------------------------|
|-7--7-7-7-----7------------------------------|
|---------------------------------------------|
|---------------------------------------------|


|----------------------------------|
|----------------------------------|
|-----------------/8---------------|
|-3---------------/9---------------|
|-3---------------/6---------------|
|-1--------------------------------|

|
| S S S S S S S S S S S S S S S S


|----------------------------------|
|-6-6-6-6-6-6-6-3h5-5-5-5-5-5-5-5-|
|----------------------------------|
|----------------------------------|
|----------------------------------|
|----------------------------------|

Gtr I


PM--------------------|

S S S S S S S S S S S S S S S S


|-------------------------------------|
|-------------------------------------|
|-------------------------------------|
|-------------------------------------|
|--------------------------8--8--8--8-|
|-1-1-1-1-5-5-5-5-4-4-4-4-------------|

|


| PM-----------------------------------

| S S S S S S S S S S S S S S S S


|-------------------------------------|
|-------------------------------------|
|-----------------5-5-5-5-10-10-10-10-|
|---------7-7-7-7---------------------|
|-8-8-8-8-----------------------------|
|-------------------------------------|

|
| Gtr II


| PM--------------------|

| S S S S S S S S S S S S S S S S


|-------------------------------------|
|-------------------------------------|
|-------------------------------------|
|-------------------------------------|
|--------------------------8--8--8--8-|
|-1-1-1-1-5-5-5-5-4-4-4-4-------------|
PM------|

S S S S S S S S S S S S S S S S


|-----------------------------------------------||
|-----------------------------------------------||
|-----------------------------------------------||
|-----------------------------------------------||
|-7-7-7-7---------------------------------------||
|-----------8--8--8--8--7--7--7--7--4--4--4--4--||

|


|-------|

| S S S S S S S S S S S S S S S S


|-----------------------------------------------||
|---------/13-13-13-13-12-12-12-12--------------||
|-9-9-9-9--------------------------13-13-13-13-||
|-----------------------------------------------||
|-----------------------------------------------||
|-----------------------------------------------||

|


| PM----| PM------|

| S S S S S S S S S S S S S S S S


|-----------------------------------------------||
|-----------------------------------------------||
|-----------------------------------------------||
|-----------------------------------------------||
|-----------7--7--7--7--5--5--5--5--------------||
|-4-4-4-4---------------------------7--7--7--7--||

Pre-Verse
$$
Gtrs I, II
PM————————————————-|
S S S S S S S S S S S S S S S S S S S S S S S S S S S S S S S S
|—————————————-|———————————|
|—————————————-|———————————|
|—————————————-|———————————|
|—————————————-|———————————|
|—————————————-|————-8-8-7-7-7-7-7-7-7-7-|
|-5-5-5-5-5-5-5-5–5–5–5–5–8–8–8-8-|-5-5-5-5-5-5———————|
|
| Gtr III
| PM—-| TPTPTP
| S S S S S S S S S S S S S S S S S S S S S S S S S S S S S S S S
|—————————————-|———————————|
|—————5h10-10-10-10-10-10-10-5h|6-6-6-6-6-6-6-3h5-5-5-5-5-5-5-5-|
|———5-5—————————-|———————————|
|-7-7-7-7—–7————————–|———————————|
|—————————————-|———————————|
|—————————————-|———————————|

PM———————–|
S S S S S S S S S S S S S S S S
|—————————————-|
|—————————————-|
|—————————————-|
|—————————————-|
|——————————8–8–8-8-|
|-5-5-5-5-8-8-8-8–5–5–5–5————|
|
| PM—-| TPTPTP
| S S S S S S S S S S S S S S S S
|—————————————-|
|—————5h10-10-10-10-10-10-10-5h|
|———5-5—————————-|
|-7-7-7-7—–7————————–|
|—————————————-|
|—————————————-|

PM——|
S S S S S S S S S S S S S S S S
|———————————————-|
|———————————————-|
|———————————————-|
|———————————————-|
|-7-7-7-7–5–5–5–5————————–|
|———————-8–8–8–8–7–7–7–7–|
|
| S S S S S S S S S S S S S S S S
|———————————————-|
|-6-6-6-6S13-13-13-13-12-12-12-12————–|
|———————————13-13-13-13-|
|———————————————-|
|———————————————-|
|———————————————-|

To Dbl. Coda
PM————————————————-|
S S S S S S S S S S S S S S S S S S S S S S S S S S S S S S S S
|—————————————-|———————————|
|—————————————-|———————————|
|—————————————-|———————————|
|—————————————-|———————————|
|—————————————-|————-8-8-7-7-7-7-7-7-7-7-|
|-5-5-5-5-5-5-5-5–5–5–5–5–8–8–8-8-|-5-5-5-5-5-5———————|
|
| PM—-| TPTPTP
| S S S S S S S S S S S S S S S S S S S S S S S S S S S S S S S S
|—————————————-|———————————|
|—————5h10-10-10-10-10-10-10-5h|6-6-6-6-6-6-6-3h5-5-5-5-5-5-5-5-|
|———5-5—————————-|———————————|
|-7-7-7-7—–7————————–|———————————|
|—————————————-|———————————|
|—————————————-|———————————|

PM—————————————————–|
|3| |3-|
S S S S S S S S S S S S S S S S S S S S S S E q E Q +E
|————————————-|—————————||
|————————————-|—————————||
|————————————-|—————————||
|————————————-|—————————||
|————————–8–8–8–8-|-7-7-7-7-7-7-10-9-7-7-(7)-||
|-1-1-1-1-5-5-5-5-4-4-4-4————-|————–8-7-5-4-(4)-||
|
| PM—————————————————–|
| |3| |3-|
| S S S S S S S S S S S S S S S S S S S S S S E q E Q +E
|————————————-|—————————||
|————————————-|—————————||
|—————–5-5-5-5-10-10-10-10-|-9-9-9-9-9-9—————||
|———7-7-7-7———————|—————————||
|-8-8-8-8—————————–|————-10-9-7-7-(7)-||
|————————————-|————–8-7-5-4-(4)-||

Verse I + II
$
Gtrs I, II
PM—-| PM————————| PM PM PM
|3| |3| |-3-| |——6——| |3| |3| |-3-| |-3-| |-3-|
E S S E E E E E S S E E S S E E S S E E E E E E E E E E
||——————————–|—————————-|
||o——————————-|—————————-|
||——————————–|—————————-|
||———-7———————|———7—–10—–9—–|
||o———–7——————-|———–7——7—–7—|
||–8-7-7-5—–5-5-5-5-5-5-5-5-5-|-8-7-7-5—–5——5—–4-|

PM—-| PM—————–
|3| |3| |-3-| |——6——|
E S S E E E E E S S E E S S E
|——————————-|
|———6———————|
|———–5——————-|
|-7-5-5-3—–3-3-3-3-3-3-3-3-3-|
|——————————-|
|——————————-|
|
| Gtr II
| PM—-| PM—————–
| |3| |3| |-3-| |——6——|
| E S S E E E E E S S E E S S E
|——————————-|
|——————————-|
|——————————-|
|———3———————|
|———–3——————-|
|-5-3-3-1—–1-1-1-1-1-1-1-1-1-|

1. 2.
-| PM PM PM PM PM PM ~
|—-6—-| |—-6—-| |—-6—-| |-3-|
E E E E E E E E E E E E E E E E E E E E E Q
|————————–||———————–||
|————————-o||———————–||
|—5—5—5————–||———————–||
|-2—2—2—2h6p2h6p2h6–||———————–||
|————————-o||-7-5-7—7—7—7—–||
|————————–||——-8—7—5—4—||
|
|-| PM PM PM PM PM PM ~
| |—-6—-| |—-6—-| |—-6—-| |-3-|
| E E E E E E E E E E E E E E E E E E E E E Q
|————————–||———————–||
|————————-o||-5-3-5—5—5—5—–||
|————————–||——-5—4—2——-||
|—7—7—7————–||——————-2—||
|-3—3—3—3h7p3h7p3h7-o||———————–||
|————————–||———————–||
Second ending.

Pre-Chorus
Gtrs I, II
PM——————–| PM—-| PM PM————|
|——6——| |—–3—–| |—–6—–| |——6——|
E S S E E S S E E S S E E E E E S S E E E E E S S E E S S E
||———————————|——————————-|
||o——————————–|——————————-|
||———————————|——————————-|
||———————————|——————————-|
||o——————————–|———3—2—————–|
||–5-5-5-5-8-8-8-8-5-5-5-5-8p5h8-|-1-1-1-1—1—4-4-4-4-4-4-4-4-|

1.
Gtr I
PM——————–|
|——6——| |—–3—–| |-3-| |-3–| |–3–| |-3–|
E S S E E S S E E S S E E E E E E E E E E E E E E E E
|——————————–|——————————||
|——————————–|—————————–o||
|——————————–|——————————||
|——————————–|——————————||
|——————————–|—————————–o||
|-5-5-5-5-8-8-8-8-5-5-5-5-8p5h8-|-0h1h4-0h4h7-0h7h10-0h4h7–||
|
| Gtr II
| PM——————–|
| |——6——| |—–3—–| |-3-| |-3–| |–3–| |-3–|
| E S S E E S S E E S S E E E E E E E E E E E E E E E E
|——————————–|——————————||
|——————————–|—————————–o||
|——————————–|——————————||
|——————————–|——————————||
|——————————–|—————————–o||
|-5-5-5-5-8-8-8-8-5-5-5-5-8p5h8-|-0h4-7-0h7h10-0h10h13-0h7h10–||

2.
To Coda D.S. al Coda
Gtr I
|————12:8————–|
E E E E E E E E E E E E E E E E E E Q
|———————————-|————————–||
|———————————-|————————–||
|———————————-|————————–||
|———————————-|———————-7–||
|———————————-|-7——-7——–7—7–||
|-4p1h4–7p4h7-10p7h10-/13p10h13-|-5——-5——–5——-||
|
| Gtr II
| |————12:8————–|
| E E E E E E E E E E E E E E E E E E Q
|———————————-|————————–||
|———————————-|————————–||
|———————————-|————————–||
|———————————-|———————-7–||
|———————————-|-7——-7——–7—7–||
|-7p4h7-10p7h10-13p10h13-/16p13h16-|-5——-5——–5——-||
|
| Gtr III
| PM ~~
| |——6——|
| W E E E E E E H
|———————————-|————————–||
|———————————-|—————–10——-||
|———————————-|———–5S9———-||
|———————————-|-2—–2S7—————-||
|———————————-|—3———————-||
|———————————-|————————–||

&
|————-12:8—————|
|————————————-||
|————————————-||
|————————————-||
|————————————-||
|————————————-||
|–7p4h7-10p7h10-/13p10h13-16p13h16-||
|
| |————-12:8—————|
| E E E E E E E E E E E E
|————————————-||
|————————————-||
|————————————-||
|————————————-||
|—————————-15p12h15-||
|-10p7h10-13p10h13-/16p13h16———-||

Chorus
Gtr III
PM—-| PM—-|
S S S S S S S S S S S S S S S S S S S S S S S S S S S S S S S S
|——————————————|———————————|
|-5-5-5-5———/13-13-13-13-12-12-12p10-|—————–9-9-9-9-8-8-8p7-|
|——————————————|-8-8-8-8————————-|
|———7-7-7-7————————–|———6-6-6-6—————–|
|——————————————|———————————|
|——————————————|———————————|
|
| Gtrs I, II
| W W
|-5—————————————-|-4——————————-|
|-5—————————————-|-4——————————-|
|-2—————————————-|-1——————————-|
|-x—————————————-|———————————|
|-0—————————————-|———————————|
|——————————————|———————————|

PM—-|
S S S S S S S S S S S S S S S S
|——————————————|
|-5-5-5-5———/13-13-13-13-12-12-12p10-|
|——————————————|
|———7-7-7-7————————–|
|——————————————|
|——————————————|
|
| W
|-5—————————————-|
|-5—————————————-|
|-2—————————————-|
|-x—————————————-|
|-0—————————————-|
|——————————————|

PM—————|
S S S S S S S S S S S S S S S S
|————————————-|
|-8-8-8-8—————————–|
|———9-9-9-9———————|
|—————–9-9-9-9————-|
|————————-11-11-11-11-|
|————————————-|
|
| W
|————————————-|
|-0———————————–|
|-0———————————–|
|-1———————————–|
|-2———————————–|
|————————————-|

PM—-| PM—-|
S S S S S S S S S S S S S S S S S S S S S S S S S S S S S S S S
|——————————————|———————————|
|-5-5-5-5———/13-13-13-13-12-12-12p10-|—————–9-9-9-9-8-8-8p7-|
|——————————————|-8-8-8-8————————-|
|———7-7-7-7————————–|———6-6-6-6—————–|
|——————————————|———————————|
|——————————————|———————————|
|
| W W
|-5—————————————-|-4——————————-|
|-5—————————————-|-4——————————-|
|-2—————————————-|-1——————————-|
|-x—————————————-|———————————|
|-0—————————————-|———————————|
|——————————————|———————————|

D.S.S. al Dbl. Coda
PM—-| PM—-|
S S S S S S S S S S S S S S S S S S S S S S S S S S S S S S S S
|———————————|———————————||
|———————————|———————————||
|-8-8-8-8-5-5-5-5-0-0-0-0-8-8-8-8-|-7-7-7-7-4-4-4-4-7-7-7-7-5-5-5-5-||
|———————————|———————————||
|———————————|———————————||
|———————————|———————————||
|
| W H H
|-8——————————-|-7—————4—————||
|-8——————————-|-7—————4—————||
|-5——————————-|-4—————x—————||
|-5——————————-|-4—————6—————||
|———————————|———————————||
|———————————|———————————||

Interlude
&&
Gtrs I, II Gtr I
PM|
|-3–|
H. Q H H H +Q +E E E
|—————————–|——-4—-||——————-|
|————————–6–|-5—–x—-||——————-|
|————————–x–|-x—–1—-||-2—-(2)–(2)—–|
|-3————————3–|-2———-||-2—-(2)–(2)-2-2-|
|-3—————————|————||-0—-(0)–(0)-0-0-|
|-1—————————|————||——————-|
|
| Gtr III Gtr II
| PM———————| ~~ PM|
| |-3–|
| S S S S S S S S S S S S Q H H H +Q +E E E
|—————————–|————||——————-|
|—————————–|————||——————-|
|——————5-5-5-5—-|————||-2—-(2)–(2)—–|
|———-7-7-7-7———3–|-2———-||-2—-(2)–(2)-2-2-|
|-8–8-8-8—————–3–|-2—-/6—-||-0—-(0)–(0)-0-0-|
|————————–1–|-0—-/4—-||——————-|

Gtrs I, II
PM PM PM—-| PM PM|
|-3–| |-3–|
E E Q Q E E H +Q +E E E E E Q Q E E H +Q +E E E
|—————|——————-|—————|——————-|
|—————|——————-|—————|——————-|
|—————|——————-|—————|-2—-(2)–(2)—–|
|-2———2—|-6—-(6)–(6)—–|—————|-2—-(2)–(2)-2-2-|
|-0———0—|-6—-(6)–(6)-6-6-|-6———6—|-0—-(0)–(0)-0-0-|
|—————|-4—-(4)–(4)-4-4-|-4———4—|——————-|

PM PM ~
E E Q Q E E H. +Q W
|—————|————–|——||
|—————|————–|——||
|—————|————–|——||
|-2———2—|————–|——||
|-0———0—|-3——-(3)s|6—-||
|—————|-1——-(1)s|4—-||

Bridge
PM PM PM PM
S S S S S S S S S S S S S S S S S S S S S S S S S S S S S S S S
||———————————–||-||———————————–||
||o———————————o||-||o———————————o||
||———————————–||-||———————————–||
||————3h5p3——————||-||————2h6p2——————||
||o-7p3-0-3h7——-7h8p7p3-0-3h7p3-o||-||o-6p2—2h6——-6p2h6p2—2h6p2-o||
||———————————–||-||——4——————-4——–||

Gtr I
PM PM
S S S S S S S S S S S S S S S S
||———————————–||-|
||o———————————o||-|
||———————————–||-|
||————3h5p3——————||-|
||o-7p3-0-3h7——-7h8p7p3-0-3h7p3-o||-|
||———————————–||-|
|
| Gtr II
| PM PM
| S S S S S S S S S S S S S S S S
||———————————–||-|
||o———————————o||-|
||———————————–||-|
||————3h5p3——————||-|
||o-7p3-0-3h7——-7h8p7p3-0-3h7p3-o||-|
||———————————–||-|

PM PM PM
S S S S S S S S S S S S S S S S
||——————————————–||
||o——————————————o||
||——————————10————||
||–3——-3s6h9———-9s12—-12—-12–||
||o—5—5——-11—-11————14—–o||
||——7————13———————–||
|
| PM PM PM
| S S S S S S S S S S S S S S S S
||——————————————–||
||o——————————————o||
||——————————-7————||
||———-0h3h6———-6S9—–9—–9–||
||o-5-2—2——–8—–8————11—–o||
||——4————10———————–||

Gtrs I, II
PM PM PM PM
S S S S S S S S S S S S S S S S S S S S S S S S S S S S S S S S
||———————————–||-||———————————–||
||o———————————o||-||o———————————o||
||———————————–||-||———————————–||
||————3h5p3——————||-||————2h6p2——————||
||o-7p3-0-3h7——-7h8p7p3-0-3h7p3-o||-||o-6p2—2h6——-6p2h6p2—2h6p2-o||
||———————————–||-||——4——————-4——–||

Gtr I
PM PM PM PM PM
S S S S S S S S S S S S S S S S S S S S S S S S S S S S S S S S
||———————————–||——————————————|
||o———————————o||——————————————|
||———————————–||—————————–10———–|
||————3h5p3——————||-3——-3s6h9———-9s12—-12—-12-|
||o-7p3-0-3h7——-7h8p7p3-0-3h7p3-o||—5—5——-11—-11————14—–|
||———————————–||—–7————13———————-|
|
| Gtr II
| PM PM PM PM PM
| S S S S S S S S S S S S S S S S S S S S S S S S S S S S S S S S
||———————————–||——————————————|
||o———————————o||——————————————|
||———————————–||——————————7———–|
||————3h5p3——————||———0h3h6———-6S9—–9—–9-|
||o-7p3-0-3h7——-7h8p7p3-0-3h7p3-o||-5-2—2——–8—–8————11—–|
||———————————–||—–4————10———————-|

PM PM
S S S S S S S S S S S S S S S S
|—————————–/13p10——-|
|————————————12—-|
|—————————————10-|
|-3——-3s6h9———-9s12————–|
|—5—5——-11—-11——————-|
|—–7————13———————-|
|
| PM PM
| S S S S S S S S S S S S S S S S
|—————————–/10p7——-|
|————————————-9—-|
|—————————————-7-|
|———0h3h6———-6S9————–|
|-5-2—2——–8—–8——————-|
|—–4————10———————-|

Guitar Solo
Gtrs I, II
PM—-| PM—-| PM| PM————————–|
E S S S S E S S S S E S S E S S S S S S E E E E
|——————————–|————————————-|
|————1——————-|————————————-|
|-2———-2————-2—–|–2———————————-|
|-2———-2————-2—–|–2——————————2—|
|-0-0-0-0-0–0—–0-0-0-0-0-0-0-|–0—-0–0–0–0–0—-0—0–0-0-0-|
|——————————–|————————————-|
|
| Gtr III
| PM| ~~ ~~~~
| E E E +S S H E. S S S E +H
|——————————–|————————————-|
|—————–10————-|-12b14r12-10s12-15b17—(15)——-|
|——-5—(5)s9—————-|————————————-|
|—6—x————————|————————————-|
|-7-x—3—(3)s7—————-|————————————-|
|-0-4—————————-|————————————-|
Do the higher harmony if you don’t have an octaver.

PM————-| PM—| PM–|
E S S S S E S S E E S S
|—————————————————————————————-|
|—————————————————————————————-|
|—————————————————–5———-4———————–|
|—2—————————–2——————-x———-x———————–|
|—2—————————–2——————-3———-2———————–|
|—0——–0—-0—-0—-0—–0——–0—-0—–1———-0———–0—-0——|
|
| T T T T T
| |–3–| |——–5——–| |——-6——–| |———7———|
| S S S S S S S S S S S S S S S S S S S S S T T T T
|———–16h19h24p16h24p16h19—————19h21p19p16————————-|
|——–18—————————-17p16h17h21—————17p12p11-12p0———|
|—–19————————————————————————-16p13—|
|-/21————————————————————————————|
|—————————————————————————————-|
|—————————————————————————————-|

PM———————| PM
E S S S S S S E E E E
|———————————————|
|———————————————|
|———————————————|
|–2——————————————|
|–2———————————–2——|
|–0——0–0–0–0–0–0–0—-0—–0-0—-|
|
| ~~
| S S S S S S S S E. S Q a
|——-/20——-19——-16b17rx——!x-|
|-12s13—————————-18p17—!x-|
|———–17S16—-16S13—————–!x-|
|——————————————!x-|
|——————————————!x-|
|———————————————|

A5 C5 A5 C5 Am
|
/
PM| PM| PM|
E S S E E S S E E S S
|——————————————|
|——————————1———–|
|-2—————————-2———–|
|-2——-5—-2———5—–2———–|
|-0—0-0-3—-0—-0–0-3—–0—–0–0–|
|——————————————|
|
| PM————-|
| S S S S S S S S S S S S S S S S
|——————————————|
|—————————–10h13p10h13–|
|——————-9h10p9h10————–|
|———7-10-7-10————————|
|-7-8-7-8-0–0-0–0————————|
|-0-0-0-0———————————-|
Heavily palm muted.

PM————————–| PM
E S S S S S S E E E E
|—————————————————————|
|—1———————————————————–|
|—2———————————————————–|
|—2——————————————2—————-|
|—0——-0—-0—–0–0–0–0–0—–0—–0——–0——-|
|—————————————————————|
|
| PM PM
| |——-5——-| |——6——-|
| S S S S S S S S S S S S S S S S S S S
|————————19p17p16——————————-|
|-/16h17p16h17p16————-17p15p13———————-|
|———————16——————-16——-16S17S16—-|
|———————————————17p14–x–x–x-14-|
|—————————————————14S15S14—-|
|—————————————————————|
Legato.

PM——| PM—-| PM| PM| PM-| PM|
E S S S S E S S S S E S S E S S E E S S E E S S
|————————————-|—————————————-|
|————————————-|—————————————-|
|–7—————-7———–7—–|—————————————-|
|–0—————-0———–0—–|–2—————2———————|
|–8—-5–5–5–5–8—5-5-5-5-8-5-5-|–2———3—–2———–3-2——-|
|————————————-|–0—-0-0–1—–0——0–0-1-0-0-0—|
|
| ~~~~~~~~~~~~~~~~~~~~~~ ~~~~
| E S S S S E H Q S S E +H
|—–/20——-19—–17————-|-17b19—–17p14h16b17-(16)————-|
|————————————-|—————————————-|
|-14/—–17s16—-16—————-|—————————————-|
|————————————-|—————————————-|
|————————————-|—————————————-|
|————————————-|—————————————-|

PM| PM| PM|
E S S E E S S E E S S
|——————————————————|
|-1——————-1———————1———-|
|-2——————-2———————2———-|
|-2———-2——–2—————2—–2———-|
|-0——0-0-0——–0———0–0–0—–0—–0–0-|
|——————————————————|
|
| |-3–| |—3—|
| S S S S S S S S S S S S S S S S S S
|——————————————20———-|
|-8h10p8—7h8-/10h11h12p10—–15h16s17—-17s16p15-|
|——–9——————–/17—–x——–x——-|
|————————————13s14—-14s13—-|
|——————————————————|
|——————————————————|
Higher harmony if no octaver.

PM————————–| PM
E S S S S S S E E E E
|———————————————-|
|———————————————-|
|–2——————————————-|
|–2—————————————2—|
|–0—–0–0–0–0–0—-0—–0—-0—–0-0-|
|———————————————-|
|
| ~~
| |—3—|
| S S S S S S S S S E. S Q
|——-20——-22—-16h19S24b25r21h24—|
|-16S17—-17s20—-20————————-|
|–x–x—–x———————————-|
|-13S14—-14s17——————————-|
|———————————————-|
|———————————————-|

PM| PM-| PM-|
E S S E E S S E E S S
|————————————————–|
|————————————————–|
|—6————–6——————–6———-|
|—6———6—-6————–6—–6———-|
|—4—-4–4-4—-4——4—-4–4—–4—–4–4-|
|————————————————–|
|
| S S S S S S S S S S S S S S E
|————-9———–/16p13—————-|
|——–9h12—12p9—–12/——–14p12———-|
|—–10———————————-16p13—|
|-/11———————————————-|
|————————————————–|
|————————————————–|

PM—————–| PM
E S S S S S S E E E E
|——————————–|
|——————————–|
|–6————————-6—|
|–6————————-6—|
|–4—-4-4–4–4-4–4—4-4-4-4-|
|——————————–|
|
| S S S S S S E H
|-/7—————————–|
|—-9—-9————/14——-|
|——10—10———–x——-|
|————–11p9—/11——-|
|——————————–|
|——————————–|

PM-| PM| PM|
E S S E E S S E E S S
|———————————————-|
|———————————————-|
|-5—————–5—————-5———|
|-7—————–7—————-7———|
|-7———–7—–7———-7—–7———|
|-5—–5–5–5—–5—–5-5–5—–5—–5-5-|
|
| ~~~~ T T
| E S S S S S S S S S S S S S S
|——-8p5h11s12-20p12s11p8-11s12-20p12s11p8-|
|-9b10-(9)————————————-|
|———————————————-|
|———————————————-|
|———————————————-|
|———————————————-|
Taps and Legato slides.

PM———————| PM
E S S S S S S E E E E
|—————————————-|
|—————————————-|
|—————————————-|
|–7————————————-|
|–7———————————7—|
|–5—–5–5–5–5–5–5–5—-5—-5-5-|
|
| T T T T ~
| S S S S S S S S S S S S Q
|-11s12-20p12s11-19p11s10-17p10S8-15p5—|
|—————————————-|
|—————————————-|
|—————————————-|
|—————————————-|
|—————————————-|

PM—————| PM—————| PM—|
E S S S S E S S S S E S S
|————————————————————————————————|
|–6———————————–6———————————–6———————|
|–4———————————–4———————————–4———————|
|–3———–3—–3—–3—–3—–3———–3—–3—–3—–3—–3———–3—–3—|
|————————————————————————————————|
|————————————————————————————————|
|
| T T T T T T T T T T T T T T T T T T T T T T T T T T T T T T T T
|————————————————————————-18h19h20h21p20p19p18p16|
|————————————————————-19h20h21h22————————|
|————————————-18h19h20h21-19h20h21h22————————————|
|————————-17h18h19h20————————————————————|
|————-16h17h18h19————————————————————————|
|-15h16h17h18————————————————————————————|

PM PM| PM
Q. E E S S E E W
|—————————–|——————-||
|—————————–|——————-||
|—————————–|-4—————–||
|–7———7———9——|-6—————–||
|–5———6———7——|-7—————–||
|———0——-0-0——-0-|-4—————–||
|
| ~~~~~~~~~~~~~~~ ~~
| |—-6—-|
| H Q Q E E E E E E H
|-17——–19——–20——|———–7s10—-||
|-20b22—–22b24—–23b25—|——-6h9———||
|—————————–|—–7—–4s7—-||
|—————————–|-6h9—3S6———||
|—————————–|—–5————-||
|—————————–|-4S7—————||

Chorus
Gtr III
PM—-|
S S S S S S S S S S S S S S S S
||——————————————-|
||o-5-5-5-5———/13-13-13-13-12-12-12p10-|
||——————————————-|
||———-7-7-7-7————————–|
||o——————————————|
||——————————————-|
|
| Gtrs I, II
| W
||–5—————————————-|
||o-5—————————————-|
||–2—————————————-|
||–x—————————————-|
||o-0—————————————-|
||——————————————-|

PM—-|
S S S S S S S S S S S S S S S S
|———————————-|
|—————–9-9-9-9-8-8-8p7–|
|-8-8-8-8————————–|
|———6-6-6-6——————|
|———————————-|
|———————————-|
|
| W
|-4——————————–|
|-4——————————–|
|-1——————————–|
|———————————-|
|———————————-|
|———————————-|

PM—-|
S S S S S S S S S S S S S S S S
|——————————————|
|-5-5-5-5———/13-13-13-13-12-12-12p10-|
|——————————————|
|———7-7-7-7————————–|
|——————————————|
|——————————————|
|
| W
|-5—————————————-|
|-5—————————————-|
|-2—————————————-|
|-x—————————————-|
|-0—————————————-|
|——————————————|

PM—————|
S S S S S S S S S S S S S S S S
|————————————-|
|-8-8-8-8—————————–|
|———9-9-9-9———————|
|—————–9-9-9-9————-|
|————————-11-11-11-11-|
|————————————-|
|
| W
|————————————-|
|-0———————————–|
|-0———————————–|
|-1———————————–|
|-2———————————–|
|————————————-|

PM—-| PM—-|
S S S S S S S S S S S S S S S S S S S S S S S S S S S S S S S S
|——————————————|———————————|
|-5-5-5-5———/13-13-13-13-12-12-12p10-|—————–9-9-9-9-8-8-8p7-|
|——————————————|-8-8-8-8————————-|
|———7-7-7-7————————–|———6-6-6-6—————–|
|——————————————|———————————|
|——————————————|———————————|
|
| W W
|-5—————————————-|-4——————————-|
|-5—————————————-|-4——————————-|
|-2—————————————-|-1——————————-|
|-x—————————————-|———————————|
|-0—————————————-|———————————|
|——————————————|———————————|

PM—-| PM—-|
S S S S S S S S S S S S S S S S S S S S S S S S S S S S S S S S
|———————————|———————————-||
|———————————|———————————o||
|-8-8-8-8-5-5-5-5-0-0-0-0-8-8-8-8-|-7-7-7-7-4-4-4-4-7-7-7-7-5-5-5-5–||
|———————————|———————————-||
|———————————|———————————o||
|———————————|———————————-||
|
| W H H
|-8——————————-|-7—————4—————-||
|-8——————————-|-7—————4—————o||
|-5——————————-|-4—————x—————-||
|-5——————————-|-4—————6—————-||
|———————————|———————————o||
|———————————|———————————-||

Outro
Gtrs I, II
PM————————————————-|
S S S S S S S S S S S S S S S S S S S S S S S S S S S S S S S S
|—————————————-|———————————|
|—————————————-|———————————|
|—————————————-|———————————|
|—————————————-|———————————|
|—————————————-|————-8-8-7-7-7-7-7-7-7-7-|
|-5-5-5-5-5-5-5-5–5–5–5–5–8–8–8-8-|-5-5-5-5-5-5———————|
|
| Gtr III
| PM—-| TPTPTP
| S S S S S S S S S S S S S S S S S S S S S S S S S S S S S S S S
|—————————————-|———————————|
|—————5h10-10-10-10-10-10-10-5h|6-6-6-6-6-6-6-3h5-5-5-5-5-5-5-5-|
|———5-5—————————-|———————————|
|-7-7-7-7—–7————————–|———————————|
|—————————————-|———————————|
|—————————————-|———————————|

PM———————–|
S S S S S S S S S S S S S S S S
|—————————————-|
|—————————————-|
|—————————————-|
|—————————————-|
|——————————8–8–8-8-|
|-5-5-5-5-8-8-8-8–5–5–5–5————|
|
| PM—-| TPTPTP
| S S S S S S S S S S S S S S S S
|—————————————-|
|—————5h10-10-10-10-10-10-10-5h|
|———5-5—————————-|

To play the this songs, including Carbonized in Cruciform by khoa by ukulele, the most crucial basic ukulele chords to learn are C chord, D chord, G chord, and Em chord.
These set you up to play a ton of songs, and each of them is easy to learn.

Leave a Reply

Your email address will not be published.