Cassie by Flyleaf Ukulele Chords

Posted on

If you are looking for Cassie ukulele chords, you’ve come to the right place.
You can play versatile instrument Cassie using ukulele or guitar.
This song by Flyleaf can also be played by that instruments.
=

Cassie chords has rhythm and included in Flyleaf (2005) album.
You can also find other musical style, including jazz ukulele chords, country music ukulele chords, pop ukulele chords, world music ukulele chords, and rock ukulele chords here.

Cassie by Flyleaf Ukulele Chords

Cassie Acoustic Tab
Album: Flyleaf
Tuning: Dropped D
By: Flyleaf
This is about 90% correct 😛
Please rate comment and enjoy 😛

Intro/Verse: Lead Guitar [repeat until pre-chorus]


e[-12--7--8--3--5--3-------------------------------------------------------]
B[-------------------------------------------------------------------------]
G[---0--0--0--0--0---------------------------------------------------------]
D[-------------------------------------------------------------------------]
A[-------------------------------------------------------------------------]
D[-------------------------------------------------------------------------]

Intro/Verse: Rhythm Guitar [repeat until pre-chorus]


e[-------------------------------------------------------------------------]
B[-------------------------------------------------------------------------]
G[-4-4-4-4-4-4-4-4--5-5-5-5-5-5-5-5----------------------------------------]
D[-4-4-4-4-4-4-4-4--5-5-5-5-5-5-5-5----------------------------------------]
A[-2-2-2-2-2-2-2-2--3-3-3-3-3-3-3-3----------------------------------------]
D[-------------------------------------------------------------------------]


[---play^w/^really^light^strums---]

[tip: switch chords everytime the lead guitar play the 12 on the e string]

Pre-Chorus: Lead Guitar


e[-12--7--8----------------------------------------------------------------]
B[-------------------------------------------------------------------------]
G[---0--0------------------------------------------------------------------]
D[-------------------------------------------------------------------------]
A[-------------------------------------------------------------------------]
D[-------------------------------------------------------------------------]

Pre-Chorus: Rhythm Guitar


e[-------------------------------------------------------------------------]
B[-------------------------------------------------------------------------]
G[-5-5-5-5-5~--------------------------------------------------------------]
D[-5-5-5-5-5~--------------------------------------------------------------]
A[-3-3-3-3-3~--------------------------------------------------------------]
D[-------------------------------------------------------------------------]


[ Tab from: http://www.guitartabs.cc/tabs/f/flyleaf/cassie_acoustic_tab_ver_3.html ]
Chorus: [repeat throughout chorus]


e[-7-7-7-7-7-7-7-7--8-8-8-8-8-8-8-8-8-8------------------------------------]
B[-9-9-9-9-9-9-9-9--9-9-9-9-9-9-9-9-9-9------------------------------------]
G[-8-8-8-8-8-8-8-8--8-8-8-8-8-8-8-8-8-8------------------------------------]
D[-------------------------------------------------------------------------]
A[-------------------------------------------------------------------------]
D[-------------------------------------------------------------------------]

Chorus: [repeat thoroughout chorus]


e[-------------------------------------------------------------------------]
B[-------------------------------------------------------------------------]
G[-4-4-4-4-4-4-4-4--5-5-5-5-5-5-5-5-5-5------------------------------------]
D[-4-4-4-4-4-4-4-4--5-5-5-5-5-5-5-5-5-5------------------------------------]
A[-2-2-2-2-2-2-2-2--3-3-3-3-3-3-3-3-3-3------------------------------------]
D[-------------------------------------------------------------------------]


[---stroke^w/^a^lot^of^force^here------]

[Repeat verse, pre-chorus, and chorus]
[Last play the verse 3 twice and then the pre-chorus]

Make sure to end on…
Lead Guitar


e[-12--7--8----------------------------------------------------------------]
B[-------------------------------------------------------------------------]
G[---0--0------------------------------------------------------------------]
D[-------------------------------------------------------------------------]
A[-------------------------------------------------------------------------]
D[-------------------------------------------------------------------------]

Rhythm Guitar


e[-------------------------------------------------------------------------]
B[-------------------------------------------------------------------------]
G[-5-5-5-5-5~--------------------------------------------------------------]
D[-5-5-5-5-5~--------------------------------------------------------------]
A[-3-3-3-3-3~--------------------------------------------------------------]
D[-------------------------------------------------------------------------]

To play the most songs, including Cassie by Flyleaf by ukulele, the most important basic ukulele chords to learn are C chord, D chord, G chord, and Em chord.
These set you up to play a many of songs, and each of them is easy to master.

Gravatar Image
Like to play Ukulele and Sudoku Game

Leave a Reply

Your email address will not be published. Required fields are marked *