If you are searching for The Reason a Dog ukulele chords, you’ve visit to the best place.
You can play versatile instrument The Reason a Dog using ukulele or guitar.
This song by Aerosmith can also be played by that instruments.
=

The Reason a Dog chords has rhythm and included in Done With Mirrors (1985) album.
You can also get other musical style, including jazz ukulele chords, country music ukulele chords, pop ukulele chords, world music ukulele chords, and rock ukulele chords here.

The Reason a Dog by Aerosmith Ukulele Chords


#
#The Reason a Dog
#
#Tabbed by Lee!!
#
#The intro and chorus are the same, they rely on like a double-stop G5 kinda
#thing, like this:
#
#


E---------------------------------------------

#


B---------------------------------------------

#


G---------------------------------------------

#


D--3-------------------------5---------------

#


A--3-------------------------5---------------

#


E--3-------------------------3-------------- (It's pretty easy, just

#figure the timing for yourself!)
#
#this is followed by a D5 when the chord changes, but only in the chorus!!!
#
#Here’s the verse!
#
You keep a-knockin’ but you can’t come in
etc….
But now I’m here baby, to even the score
The refrain thing after the second chorus is just as easy.
followed by…
Your older sister she’s alot like you
Coz there ain’t too much she won’t do_____
And that’s all there is to it, this song is good enough to pull off just
playin’ the rythym.
Hope you can use it!!
Lee (Using his cousin’s PC, email address etc)

To play the this songs, including The Reason a Dog by Aerosmith by ukulele, the most important basic ukulele chords to learn are C chord, D chord, G chord, and Em chord.
These set you up to play a a lot of songs, and each of them is easy to learn.

If you are searching for Spaced ukulele chords, you have visit to the best place.
You can play versatile instrument Spaced using ukulele or guitar.
This song by Aerosmith can also be played by that instruments.
=

Spaced chords has rhythm and included in Get Your Wings (1974) album.
You can also find other musical style, including jazz ukulele chords, country music ukulele chords, pop ukulele chords, world music ukulele chords, and rock ukulele chords here.

Spaced by Aerosmith Ukulele Chords


#
#Subject:
# Spaced
# Date:
# Thu, 16 Oct 1997 12:37:02 +0000
# From:
# karl-johan@usa.net
# To:
# meunier.1@osu.edu
#Hi there!
#
#Here u have “Spaced” to complete the Get Your Wings album. Cant figure out why nobody have ever transcribed this before, I think its one of the greatest Aero-tunes. Its in chord format if thats OK.
#Must say that your page kicks bottoms.
#
#Enjoy!
#
#Karl-Johan Svensson
#
#

#——————————————————————————#

##This file is the author’s own work and represents their interpretation of the #
##song. You may only use this file for private study, scholarship, or research. #
#

#——————————————————————————#

#
#Song: Spaced
#Album: Get Your Wings
#Transcribed by: Karl-Johan Svensson (karl-johan@usa.net)
#Comment: Hope youll enjoy this damn fine Aerosmith tune. Got any questions then
# mail me.
#D#, G#
#D, G
#
Spaced in time
Child of nine
Doin’ twenty years on the way
Fire and steel
Earth unreal
Find another planet to stay
Papa died
Ma survived
Tellin’ me about her ordeal
And the soul she could not feel
‘Cause they made her so unreal
Lightnin’ years
Disappears
Twenty million years on my brain
Synthesize
Overrides
Tryin’ to keep from goin’ insane
And my soul I can not feel
‘Cause they made me so unreal
A (C#, D, C#, F, E, E) x4
G A (C#, D, C#, F, E, E x2)
Spaced enough to know I feel there’s nothin’ out there
G A (C#, D, C#, F, E, E x2)
Spaced enough to know I feel I really don’t care
G F Bb, E, A, D, G
Spaced enough to feel I’m really losin’ my mind
A, C x7
And I’m never, never, never, never, ever goin’ back
I’m off the track
No one even knows I’m alive
Spaced
Without a trace
Waitin’ for the word to arrive
I’m the last man to survive
A, C x7

To play the most songs, including Spaced by Aerosmith by ukulele, the most crucial basic ukulele chords to learn are C chord, D chord, G chord, and Em chord.
These set you up to play a ton of songs, and each of them is easy to master.

If you are searching for Three Mile Smile ukulele chords, you have come to the best place.
You can play versatile instrument Three Mile Smile using ukulele or guitar.
This song by Aerosmith can also be played by that instruments.
=

Three Mile Smile chords has rhythm and included in Night in the Ruts (1979) album.
You can also find another musical style, including jazz ukulele chords, country music ukulele chords, pop ukulele chords, world music ukulele chords, and rock ukulele chords here.

Three Mile Smile by Aerosmith Ukulele Chords


#
#Hey dude, nice page, but I noticed you don’t have my favorite song,
#”Three Mile Smile”…so I typed up my transcription and here it is!
#
# Chris Calabrese
#”Three Mile Smile” by Aerosmith
#>From _Night in the Ruts_
#
#I have most of the song down, but I haven’t heard it for about a year, and I
#just dug up a transcription I did from a year ago so here it is. This song is
#a lot of fun to play!
#
#Riff A – play twice
#
[B/A] [B/A]


e-------------------------------------|-------------------------------------|
B-------------------------------------|-------------------------------------|
G----4----4---------------------------|---4-----4---------------------------|
D----4----4----0-0-1-2-4--------------|---4-----4----0-0-1-2-4--------------|
A----0----2--------------2---2--2--2--|---0-----2--------------2---2--2--2--|
E----------------------------0--0--0--|----------------------------0--0--0--|

Then there’s the drum break
Riff B – play 6 times


e--------------------------|-------------------------|
B--------------------------|-------------------------|
G--------------------------|-------------------------|
D--6--6---5--4---4--4--4---|--4--4---5--6------7--6--|
A--7--7---6--5---5--5--5---|--5--5---6--7------5--7--|
E--------------------------|----------------0--------|

Riff C – play twice


e---------------------------------------|
B----------------3-----------------3----|
G----------------2-----------------2----|
D-------2--------0--------2--------0----|
A-------2-----------------2-------------|
E--3^---0---3^-------3^---0---3^--------|

Then play
Riff B four times
Riff C once
Riff D twice
Riff D


e------------------------------------|
B------------------------------------|
G------------------------------------|
D------------------------------------|
A--------5-------------0--5----------|
E--0--3------3--0---3--------3--(0)--|

Then play
Riff B four times
Riff C once
Riff D once
Riff C once
Riff D once
Riff A twice
Next comes the solo. I did the rhtyhm part, but I was too lazy to do the
solo, because Joe Perry is a very sloppy player, and especially in this solo.
Solo Rhythm – play 3 times


e------------------------------|------------------------------------------|
B------------------------------|------------------------------------------|
G--7---7---2-------------------|----------------7--7--2-------------------|
D--7---7---2-------------------|--6--6---5--4---7--7--2-------------------|
A--5---5---0------2---2--2--2--|--7--7---6--5---5--5--0------2---2--2--2--|
E-------------3^--0---0--0--0--|-------------------------3^--0---0--0--0--|

Lead after solo
Guitar 1


e--------------------|------------------|-------------------|----------------|
B--------------------|------------------|-------------------|----------------|
G--------------------|------------------|-------------------|----------------|
D--------------------|------------------|-------------------|----------------|
A--------------------|------------------|-------------------|----------------|
E--4-5-4-5-6-7-------|-4-5-4-5-6-7------|-4-5-4-5-6-7-------|-4-5-4-5-6-7----|

| |
| |
| Guitar 2 E A E E A A |


e--------------------|------------------|-------------------|----------------|
B--------------------|------------------|-------------------|----------------|
G--------------9--2-|--------------9--|-------------9--2-|-------------2--|
D--------------9--2-|--------------9--|-------------9--2-|-------------2--|
A--------------7--0-|--------------7--|-------------7--0-|-------------0--|
E--------------------|------------------|-------------------|----------------|

Then play
Riff D four times
Then after that there’s a second solo where he just plays riff D throughout
pretty much of the solo. It’s pretty easy to figure out what he’s doing after
this spot, but I haven’t heard the song in a while so I can’t remember.
Chris Calabrese
robert.calabrese@snet.net
slide
^ bend
() the note in parenthesees is tied to the next measure

To play the most songs, including Three Mile Smile by Aerosmith by ukulele, the most important basic ukulele chords to learn are C chord, D chord, G chord, and Em chord.
These set you up to play a ton of songs, and each of them is easy to master.

If you are looking for The Movie ukulele chords, you already come to the best place.
You can play versatile instrument The Movie using ukulele or guitar.
This song by Aerosmith can also be played by that instruments.
=

The Movie chords has rhythm and included in Permanent Vacation (1987) album.
You can also get another musical genres, including jazz ukulele chords, country music ukulele chords, pop ukulele chords, world music ukulele chords, and rock ukulele chords here.

The Movie by Aerosmith Ukulele Chords


Received: from dartvax.dartmouth.edu (dartvax.dartmouth.edu [129.170.16.4]) by clinet.fi (8.6.10/8.6.4) with ESMTP id OAA24838 for ; Mon, 3 Apr 1995 14:59:25 +0300
Received: from rye.city.ac.uk (rye.city.ac.uk [138.40.11.7]) by dartvax.dartmouth.edu (8.6.11-DND/8.6.9) with SMTP id HAA21272 for ; Mon, 3 Apr 1995 07:39:57 -0400
Received: from taplow.city.ac.uk by rye.city.ac.uk with SMTP (PP)
id ; Mon, 3 Apr 1995 12:39:25 +0100
To: aerosmith-fans@Dartmouth.EDU
Message-Id:
Mime-Version: 1.0
Content-Type: TEXT/PLAIN; charsetUS-ASCII
content-length: 1310
Status: OR
If you don’t play guitar or keyboard, hit elete now!
I have just reached the point where I can play certain parts of songs without
seeing the TAB, just by listening. I don’t always get it right though so if
anyone can play these two songs your comments would be welcome. Thanx.
James.
The Movie

E5(palm mute)
e|——-7–0————|–/9–12–0————|———-|———-|
B|—/5———-3-5-3—|———-5—–3-5-3–|———-|———-|
G|.———————.|.———————.|———-|———-|
D|.———————.|.———————.|———-|———-|
A|———————–|———————–|-22222222-|-22222222-|
E|———————–|———————–|-00000000-|-00000000-|
………….cresc.
By the way, do they ever play this live? If anyone can figure out that
wacky slap-bass part that Steven plays on the keyboard then let me know
please. I reckon that this song is in the key of E.
I think I figured out that little slap-bass thing in “The Movie”.
I think it goes something like this:
e————————-|
B————————-|
G————————|
D—–2——————|
A——–5–2———5—|
E–0————0–0——|
I transcricribed it on a piano. That should be good enough for gov’t

Dave Hilling
davecave@geocities.com
http://www.geocities.com/SunsetStrip/Club/2528
Home of the Wolfenstein 3D desktop theme!

To play the this songs, including The Movie by Aerosmith by ukulele, the most crucial basic ukulele chords to learn are C chord, D chord, G chord, and Em chord.
These set you up to play a a lot of songs, and each of them is easy to learn.

If you are searching for Toys in the Attic ukulele chords, you’ve visit to the best site.
You can play versatile instrument Toys in the Attic using ukulele or guitar.
This song by Aerosmith can also be played by that instruments.
=

Toys in the Attic chords has rhythm and included in Toys in the Attic (1975) album.
You can also get other musical style, including jazz ukulele chords, country music ukulele chords, pop ukulele chords, world music ukulele chords, and rock ukulele chords here.

Toys in the Attic by Aerosmith Ukulele Chords


Subject: Tab for Aerosmiths Toys_In
Aerosmith
Toys In The Attic
From the album Toys In The Attic
Intro : (Rhy. Fig. 1)
E5 D5 A 3X


----------------------------- ------
----------------------------- -3--2-
----------------------------- -2--2-
-----2h0-----0--------------- -0--2-
-2----------2-----2---------- ----0-
-0-------------------3p0--0-- ------

Bridge :


----------------------------------------3----
----------------------------------------3----
----------------------7-------7--2-----0----
---7-------7--2------7-------7--2-----0----
---7-------7--2------5-------5--0-----0----
---5-------5--0------------------------3----

Lights. Voices scream. Nothing seen.
D5 A5 (N.C.) B5 A5 B5 A5 (N.C.)


---------------------------------------------------------------
---------------------------------------------------------------
---7--2----------------------4-2---4---4---4--2---------------
---7--2----------------------4-2---4---4---4--2---------------
---5--0----------2--2--4 6--------------------2-2--4 6----
---------------------------------------------------------------

Reals the dream.
Verse : (Rhy. Fig. 2)


--------------------------------- ---------------------
-10--9--9b10r9------7------------ ---------------------
--------9b10r9------7--------6--- ---------------------
-------------------------9---7--- ---------------------
--------------------------------- -7---0------------2--
--------------------------------- -------------0----0--

Leaving the things that are real behind.
Repeat Rhy. Fig.2 with the rest of the verse :
Leaving the things that you love from mind.
All of the things that you learned from fears.
Nothing is left but the years.
Bridge : (Repeat Bridge)
Chorus : (Rhy. Fig.1) 4X
Toys, toys, toys in the attic
Bridge : (Repeat Bridge)
Solo :


----6----6----6----6-----8-----------------------------
-4----4----4----4----------8---------------------------
-6b---6b---6b---6b---7b------7b-5-7b-5---7---5-7b-5-6--
---------------------------------------7---5-----------
-------------------------------------------------------
-------------------------------------------------------
-----8-8--------------8-------8-----8-8-8--------------
-----8-8-10b-8-10b-8----10-10---11b-------11-8-10-11---
-79-----10b-8-10b-8-----------------------------------
-------------------------------------------------------
-------------------------------------------------------
-------------------------------------------------------
--------------------------------------------108-------
--------------------------------------------108-------
-8-8----8-8----8-8----8-8----8-8-7-------10------------
-8-8----8-8----8-8----8-8----8-8-7----10-10------------
-----10-----10-----10-----10-------10------------------
-------------------------------------------------------
-----8-------8---------8-------8-----------------------
-11b-8-------8-11b-----8-------------------------------
-------8-10b-------10b---8-10b---118-10-10-10b--------
-------------------------------------------------------
-------------------------------------------------------
-------------------------------------------------------
----------------------- -------
-----8-----9-----10---- --12b-
-10b---11b---12b----13- --14b-
----------------------- -------
----------------------- -------
----------------------- -------

Repeat chorus untill end (Rhy. Fig.1)
Double stops are very important during the verses and the
solo. Use double stops during the solo. It makes
the song sound more complete.
coolez@aol.com

To play the most songs, including Toys in the Attic by Aerosmith by ukulele, the most crucial basic ukulele chords to learn are C chord, D chord, G chord, and Em chord.
These set you up to play a ton of songs, and each of them is easy to master.

If you are searching for Hole in My Soul ukulele chords, you have come to the best site.
You can play versatile instrument Hole in My Soul using ukulele or guitar.
This song by Aerosmith can also be played by that instruments.
=

Hole in My Soul chords has rhythm and included in Nine Lives (1997) album.
You can also get other musical style, including jazz ukulele chords, country music ukulele chords, pop ukulele chords, world music ukulele chords, and rock ukulele chords here.

Hole in My Soul by Aerosmith Ukulele Chords


FINAL CORRECTIONS BY PHIL ROCK

Artist – Aerosmith
Song – Hole In My Soul

Intro: (2x)

e+-5—–5—-|-7—–7—-|-8—–8—-|-7—–7—-|
B+-6—–6—-|-6—–6—-|-6—–6—-|-6—–6—-|
G+—-5—–5-|—-5—–5-|—-5—–5-|—-5—–5-|
D+————|————|————|————|
A+————|————|————|————|
E+————|————|————|————|

Riff: (During verses)

|-5—–5—-|-7—–7—-|-8—–8—-|-7—–5—-|
|-6—–6—-|-6—–6—-|-6—–6—-|-6—–6—-|
|—-5—–5-|—-5—–5-|—-5—–5-|—-5—–5-|
|————|————|————|————|
|————|————|————|————|
|————|————|————|————|
|-5—–5—-|-5—–5—-|-3—–3—-|-3—–3—-|
|-5—–5—-|-5—–5—-|-5—–5—-|-5—–5—-|
|—-4—–4-|—-4—–4-|—-4—–4-|—-4—–4-|
|————|————|————|————|
|————|————|————|————|
|————|————|————|————|

I’m down a one way street
With a one night stand
With a one track mind
Out in no man’s land
(The punishment sometimes don’t seem to fit the crime)
Yeah there’s a hole in my soul
But one thing I’ve learned
For every love letter written
There’s another one burned
(So you tell me how it’s gonna be this time)

Is it over
Is it over
‘Cause I’m blowin’ out the flame
Take a walk outside your mind
Tell me how it feels to be
The one who turns the knife inside of me
Take a look and you will find there’s nothing there girl
Yeah I swear, I’m telling you girl yeah ’cause

There’s a hole in my soul that’s been killing me forever
It’s a place where a garden never grows
There’s a hole in my soul, yeah I should have known better
‘Cause your love’s like a thorn without a rose
Yeah Yeeeeaaaahhhh

(Same Riff as Verse 1)
I’m as dry as a seven year drought
I got dust for tears
And I’m all tapped out
(Sometimes I feel broke and can’t get fixed)
I know there’s been all kinds of shoes underneath your bed
Now I sleep with my boots on but you’re still in my head
(And something tells me this time I’m down to my last licks)

Is it over
Is it over
‘Cause I’m blowin’ out the flame
Take a walk outside your mind
Tell me how it feels to be
The one who turns the knife inside of me
Take a look and you will find there’s nothing there girl
Yeah I swear, I’m telling you girl yeah ’cause

There’s a hole in my soul that’s been killing me forever
It’s a place where a garden never grows
There’s a hole in my soul, yeah I should have known better
‘Cause your love’s like a thorn without a rose
Yeah Yeeeeaaaahhhh

SOLO (Same riff as verses)

Is it over
Is it over
‘Cause I’m blowin’ out the flame
Take a walk outside your mind
Tell me how it feels to be
The one who turns the knife inside of me
Take a look and you will find there’s nothing there girl
Yeah I swear, I’m telling you girl yeah ’cause

There’s a hole in my soul that’s been killing me forever
It’s a place where a garden never grows
There’s a hole in my soul, yeah I should have known better
‘Cause your love’s like a thorn without a rose
Yeah Yeeeeaaaahhhh

OUTRO (Like intro)

To play the most songs, including Hole in My Soul by Aerosmith by ukulele, the most important basic ukulele chords to learn are C chord, D chord, G chord, and Em chord.
These set you up to play a many of songs, and each of them is easy to master.

If you are looking for Round and Round ukulele chords, you’ve visit to the right site.
You can play versatile instrument Round and Round using ukulele or guitar.
This song by Aerosmith can also be played by that instruments.
=

Round and Round chords has rhythm and included in Toys in the Attic (1975) album.
You can also get other musical style, including jazz ukulele chords, country music ukulele chords, pop ukulele chords, world music ukulele chords, and rock ukulele chords here.

Round and Round by Aerosmith Ukulele Chords


Date: Wed, 3 Jan 1996 21:58:03 -0500
From: Bryson Meunier
Subject: TAB:”ROUND AND ROUND” by Aerosmith
“ROUND AND ROUND” (Steven Tyler/Brad Whitford)
performed by Aerosmith on “Toys in the Attic”(1975)
humbly transcribed by Bryson Meunier
intro-
Repeat each chord about eight times(I think. Listen to the cd for
verification). Palm mute repeated chords. Turn up the gain and the bass on
your amp for a fatter guitar sound.

E———————————————–
B———————————————–
G———-4—–5—–7–7–7——————
D—-7—–4—–5—–7–7–7——-5———-
A—-7—–2—–3—–5–5–5–5h7——73—-
E—-5——————————————

verse-

F#5 A —PM—- — —
E————————————————
B————————————————
G————/9———————————-
D—-4b–2—/9————–7——-5———–
A—-4b–2—/7————–7——-5———–
E—-2b–0——–0–0—-0——0——-0——- (repeat several times)

Lyrics:
If you believe in me like I believe in you
you wouldn’t be tellin’ me things that weren’t exactly true
Now everything changes ain’t nothin the same
I’m gettin’ the strangest feelin’ I can’t remember my name
Cause the life I’ve been livin and the love I’ve been givin’ will be sure to
send you spinnin’ with your feet never touchin’ the ground, goin’ round
and round.
When it was one for all and it was all for one
and everything that we did never bothered no one
Now everything changes ain’t nothin the same
I’m gettin’ the strangest feelin’ I can’t remember my name
Cause the life…etc.
Can you remember the days when you was sweet sixteen
and always followed the ways of someone else’s dream
Now everything changes…etc.
I’m goin’ round and round and round and round…
symbols used in transcription:
h hammer-on
slide
b bend
PM palm mute
You should be able to figure out the remaining rhythm guitar parts from
the chords indicated here. Anyone who wants to take the time to work out the
lead guitar work is more than welcome to add it to this file/create their
own file. I post songs because I want to see accurate transcriptions that
aren’t otherwise available. If you can make this transcription more accurate
or if you just have questions or comments, e-mail me at meunier.1@osu.edu

To play the most songs, including Round and Round by Aerosmith by ukulele, the most important basic ukulele chords to learn are C chord, D chord, G chord, and Em chord.
These set you up to play a ton of songs, and each of them is easy to master.

If you are searching for Same Old Song and Dance ukulele chords, you’ve come to the right place.
You can play versatile instrument Same Old Song and Dance using ukulele or guitar.
This song by Aerosmith can also be played by that instruments.
=

Same Old Song and Dance chords has rhythm and included in Get Your Wings (1974) album.
You can also get other musical genres, including jazz ukulele chords, country music ukulele chords, pop ukulele chords, world music ukulele chords, and rock ukulele chords here.

Same Old Song and Dance by Aerosmith Ukulele Chords


Aerosmith
Same Old Song And Dance
Intro : (Rhy. Fig.1)
E7 Em7 E5 4X


---------------------------- -------------------
---------------------------- -------------------
---------------------------- --------------9-9--
--------------0--0------0--- --------------9-9--
-----------2---------2-----2 --------------7-7--
-0--0--4-------------------- --3--0-----0-------

Verse : (Rhy. Fig.2)


------------------------- ---------------------------
------------------------- ---8-----------------------
----------------7----7--- --------7--------9---------
---------9------7----7--- ------------7----9---------
---------7--------------- ---------------------------
------------------------- ---------------------------

Get yourself cool-er, lay yourself low. Etc.
(Rhy. Fig.2)
Coincidental murder with nothing to show.
When the judge’s constipation goes to his head,
and his wife’s aggravation, you’re soon enough dead.


------------------------------------------ Repeat Rhy. Fig.1
------------------------------------------ After each chorus.
-------------------5---5-----7----7-------
-5----5----7-7-----5---5-----7----7-------
-5----5----7-7-----3---3-----5----5-------
-3----3----5-5----------------------------

Same old story, same old song and dance
Bridge :(Rhy. Fig.3) B


---------------------------------------------- Repeat Rhy.Fig.3
---------------------------------------------- with rest of
--4-----4------0----2-----4-----4-----0---2--- bridge.
--4-----4------0----2-----4-----4-----0---2---
----------------------------------------------
----------------------------------------------

Fate comes a knocking; doors start locking….
Your old time connection, change your direction.
Ain’t gonna change it, can’t rearrange it.
Can’t stand the pain when it’s all the same to you, my friend.
Rhy. Fig.1
At the end, use the same chorus Rhy. but substitute
this at the end of the chorus….


-----------------------------------------
-----------------------------------------
-5---5----7-7----------------------------
-5---5----7-7----3----3---5---5----7-----
-3---3----5-5----3----3---5---5----7-----
-----------------1----1---3---3----5-----

Same old story, same old song and dance.
I did not want to take the time to write all the verses
out, but I think you get the idea. This is a very easy song
to play, and fun.
Please write back if you have a question, or if you
want to tell me that I am totally wrong. (I probably am.)
coolez@aol.com

To play the this songs, including Same Old Song and Dance by Aerosmith by ukulele, the most important basic ukulele chords to learn are C chord, D chord, G chord, and Em chord.
These set you up to play a a lot of songs, and each of them is easy to master.

If you are searching for Uncle Salty ukulele chords, you have come to the right place.
You can play versatile instrument Uncle Salty using ukulele or guitar.
This song by Aerosmith can also be played by that instruments.
=

Uncle Salty chords has rhythm and included in Toys in the Attic (1975) album.
You can also get other musical style, including jazz ukulele chords, country music ukulele chords, pop ukulele chords, world music ukulele chords, and rock ukulele chords here.

Uncle Salty by Aerosmith Ukulele Chords


Uncle Salty(Tyler,Hamilton)
Updated(solo,verse riff,chords added) 10/2/96
intro-


E--0-------2-------0-------2----
B--2-------3-------1-------3----
G--2-------2-------0-------2----
D--2-------0-------2-------0----
A--0---------------0------------
E-------------------------------

Repeat that a couple of times and then play this little
riff:


E------------------------------
B------------------------------
G------1--2------1--2---21----
D---0---------0----------------
A------------------------------
E------------------------------

Try this for the verse:
rhythm guitar plays A chord
lead plays the following


E----------------------------------------------3-5------3-0---
B---------4h5------------4h5-----------4h5--------------------
G-------------------------------------------------------------
D-----7/-------------7/------------7/-------------------------
A--0--------------0--------------0----------0--------0--------
E-------------------------------------------------------------

But when she cried at night
no one came (fill 1)
The chords are similar for the rest of the song changing only to F and then
E when Steven says “went insane.”
G 320003
A x02220
F 133211
E 022100
For the little fill that sounds like the verse, either play that part of the
verse that is relevant or try this:
fill 1-


E---------------------------
B-------------8h10-----8/5--
G-----8h9-------------------
D---------------------------
A--0-------0--------0-------
E---------------------------

1st bridge riff:


E---------0--3p2-------2-------3----------0--5(1)-
B--------------------------------------------------
G--------------------------------------------------
D------2-------------------------------2-----------
A---0--------------0-------0--------0--------------
E--------------------------------------------------

2nd bridge riff:


E------3------1------0--------1------3----
B--------3------3------3--------3---------
G---0------0------0------0-0------0-------
D-----------------------------------------
A-----------------------------------------
E-----------------------------------------

Solo(distortion with pickup switch at(or around) top position)-


E--------------------------------------------------
B-------------------10-12-12b--10--10----10-1013--
G--5b---r---7b--11--------------------------------
D---------7----------------------------------------
A--------------------------------------------------
E--------------------------------------------------
E--------------------------------------------------
B-13--13--13---------------------------------------
G-----------13h15--15-18-13-15-18-13-15-18-18-15-13
D--------------------------------------------------
A--------------------------------------------------
E--------------------------------------------------
E--------------------------------------------------
B-----------------------------13-15-13-15-15b-r-13-
G-15-18b--18b--18-15----1315----------------------
D--------------------------------------------------
A--------------------------------------------------
E--------------------------------------------------

hold


E---------------------------14-16-16b-r-16b-r--16b-rp13-16b-
B-----13----13-15-13--1517---------------------------------
G-15-----15-------------------------------------------------
D-----------------------------------------------------------
A-----------------------------------------------------------
E-----------------------------------------------------------

That’s about it. Write me with any comments,questions or corrections at
meunier.1@osu.edu Have fun with it.
Transcribed by Bryson Meunier
Symbols used in transcription:
slide
h hammer-on
p pull-off
b bend
r release

To play the most songs, including Uncle Salty by Aerosmith by ukulele, the most important basic ukulele chords to learn are C chord, D chord, G chord, and Em chord.
These set you up to play a a lot of songs, and each of them is easy to learn.

If you are searching for Angel ukulele chords, you have visit to the right site.
You can play versatile instrument Angel using ukulele or guitar.
This song by Aerosmith can also be played by that instruments.
=

Angel chords has rhythm and included in Permanent Vacation (1987) album.
You can also get another musical style, including jazz ukulele chords, country music ukulele chords, pop ukulele chords, world music ukulele chords, and rock ukulele chords here.

Angel by Aerosmith Ukulele Chords


——————————————————————–

A N G E L – Aerosmith
Words/Music by Desmond Child and Steven Tyler

——————————————————————–

Intro: Eb____ Bb-Ab____ Bb- (Play 3 Times)
Cm____ Bb-Ab____ Absus____ Ab____
1: I’m alone
2: Don’t know what I’m gonna do
1: Yeah I don’t know if I can face the night
2: about this feeling inside
1: I’m in tears
2: Yes it’s true
1: and the cryin’ that I do is for you
2: loneliness took me for a ride
1: I want your love
2: Without your love
1: Let’s break the walls between us
2: I’m nothing but a beggar
1: Don’t make it tough
2: Without your love
1: I’ll put away my pride
2: a dog without a bone
1: Enough’s enough
2: What can I do?
1: I’ve suffered and I’ve seen the light
2: I’m sleeping in this bed alone
Chorus:
Ba-yay-by, you’re my angel[Bb-Ab]
Come and save me [Bb-Cm]tonight[Bb-Ab]
You’re [Bb-Eb]my angel[Bb-Ab]
Come and make it all [Bb-Cm]right
1: Ab____ Absus____ Ab____ (goto verse 2)
2: [Bb-Ab] Come and save [Bb-Eb]me tonight
Bb-Ab____ Bb-Cm____ Bb-Ab____
You’re the reason I live
You’re the reason I die
You’re the reason I give
when I break down and cry
Ab Bb____
Don’t need no reason why.________
Baby, Baby
(Chorus)
This is my first posting. Please let me know if you have
any questions or comments. If you have any Aerosmith music
that isn’t at the archives, I would REALLY like to see it!
___ __ __ _
/ _ _ _____ ___ / / __ / /__ _(_)__
+ / _ / / / -_ _- ajain@ibms15.scri.fsu.edu OOOOOO

+
So, from all of us at Aerosmith to all of you out there, wherever you are,
remember, the light at the end of the tunnel may be you. Good Night
++

To play the this songs, including Angel by Aerosmith by ukulele, the most crucial basic ukulele chords to learn are C chord, D chord, G chord, and Em chord.
These set you up to play a many of songs, and each of them is easy to master.