If you are looking for Don’t Make Me Ill ukulele chords, you have come to the best place.
You can play versatile instrument Don’t Make Me Ill using ukulele or guitar.
This song by AFI can also be played by that instruments.
=

Don’t Make Me Ill chords has rhythm and included in Answer That and Stay Fashionable (1995) album.
You can also get another musical genres, including jazz ukulele chords, country music ukulele chords, pop ukulele chords, world music ukulele chords, and rock ukulele chords here.

Don’t Make Me Ill by AFI Ukulele Chords


Intro:
repeat 3x


e|------------------------------------------------------------------|
b|------------------------------------------------------------------|
g|------------------------------------------------------------------|
d|-12--12--12--12--5--5--5--5--5--7--7--7--7------------------------|
a|-12--12--12--12--5--5--5--5--5--7--7--7--7------------------------|
e|-10--10--10--10--3--3--3--3--3--5--5--5--5------------------------|

then…..


e|------------------------------------------------------------------|
b|------------------------------------------------------------------|
g|------------------------------------------------------------------|
d|---5--5--5--5--7--7--7--76/7--7----------------------------------|
a|---5--5--5--5--7--7--7--76/7--7----------------------------------|
e|---3--3--3--3--5--5--5--54/5--5----------------------------------|

verse


e|------------------------------------------------------------------
b|------------------------------------------------------------------
g|------------------------------------------------------------------
d|--12--12--12--12--7--7--7--7--5--5--5--5--------------------------
a|--12--12--12--12--7--7--7--7--5--5--5--5--------------------------
e|--10--10--10--10--5--5--5--5--3--3--3--3--------------------------

then play “then”

“no one..” “no ones gonna tell me..”


e|------------------------------------------------------------------
b|------------------------------------------------------------------
g|------------------------------------------------------------------
d|--12--12--12--12--5--5--5--5--7--7--7--7--5--5--5--5--------------
a|--12--12--12--12--5--5--5--5--7--7--7--7--5--5--5--5--------------
e|--10--10--10--10--3--3--3--3--5--5--5--5--3--3--3--3--------------

solo


------------------ ---------------------- --------------------
e|---------------|-----------------|-----------p--------------------|
b|---------------|-----------------|-----------a--------------------|
g|---------------|---------6-9-7-6-|-----------u------6-9-7---------|
d|--------4-7-5-4|---7-7-----------|--7-7------s--------------------|
a|--5-5----------|-----------------|-----------e--------------------|
e|---------------|-----------------|--------------------------------|

structure: 1 2 1 3

To play the most songs, including Don’t Make Me Ill by AFI by ukulele, the most crucial basic ukulele chords to learn are C chord, D chord, G chord, and Em chord.
These set you up to play a a lot of songs, and each of them is easy to master.

If you are looking for Sacrifice Theory ukulele chords, you’ve visit to the best site.
You can play versatile instrument Sacrifice Theory using ukulele or guitar.
This song by AFI can also be played by that instruments.
=

Sacrifice Theory chords has rhythm and included in The Art of Drowning (2000) album.
You can also get another musical genres, including jazz ukulele chords, country music ukulele chords, pop ukulele chords, world music ukulele chords, and rock ukulele chords here.

Sacrifice Theory by AFI Ukulele Chords

p.m.: palm mut the stuff under the dots
pick s.: pick slide
this song has a weird rythm but its not had to figure out.

intro:


[-7---7---------7----------]
[-7-----7-------7----------]
[-7-------7-----7----------]
[-9---------9---9---9------]
[-9-----------------9(x8)--]
[-7-----------------7------]

verse 1:


[----------------------------------------------------------------------------------]
[----------------------------------------------------------------------------------]
[-7-----4-----6-------------------------------------4-----6------------------------]
[-9-(x4)5-(x2)7-(x2)-(do that 3 times then do this>)5-(x4)7-(x4)-------------------]
[-9-----5-----7-------------------------------------5-----7------------------------]
[-7-----3-----5-------------------------------------3-----5------------------------]
[----------------------------------------------------------------------------------]
[----------------------------------------------------------------------------------]
[-7-----4-----6-------------------------------------4-----6------------------------]
[-9-(x4)5-(x2)7-(x2)-(do that 3 times then do this>)5-(x4)7-(x4)-------------------]
[-9-----5-----7-------------------------------------5-----7------------------------]
[-7-----3-----5-------------------------------------3-----5------------------------]

chours:


[----------------------------------------------------------------------------------]
[-7-----------------------7--------------------------------------------------------]
[-7-(x2)6-----7-----4-----7-6-----------------------------------3------------------]
[-7-----7-(x2)9-(x4)5-(x4)7-7-(x4)(do that 2 times the do this>)4-(x4)-------------]
[-5-----7-----9-----5-----5-7-----------------------------------4------------------]
[-------5-----7-----3-------5-----------------------------------2------------------]

verse 2:


[----------------------------------------------------------------------------------]
[----------------------------------------------------------------------------------]
[-7-----4-----6-------------------------------------4-----6------------------------]
[-9-(x4)5-(x2)7-(x2)-(do that 3 times then do this>)5-(x4)7-(x4)-------------------]
[-9-----5-----7-------------------------------------5-----7------------------------]
[-7-----3-----5-------------------------------------3-----5------------------------]

palm muted………………………………………………………………..


[----------------------------------------------------------------------------------]
[----------------------------------------------------------------------------------]
[-7-----4-----6-------------------------------------4-----6------------------------]
[-9-(x4)5-(x2)7-(x2)-(do that 3 times then do this>)5-(x4)7-(x4)-------------------]
[-9-----5-----7-------------------------------------5-----7------------------------]
[-7-----3-----5-------------------------------------3-----5------------------------]

p.m…


[----------------------------------------------------------------------------------]
[----------------------------------------------------------------------------------]
[-7-----4-----6-------------------------------------4-----6------------------------]
[-9-(x4)5-(x2)7-(x2)-(do that 3 times then do this>)5-(x4)7-(x4)-------------------]
[-9-----5-----7-------------------------------------5-----7------------------------]
[-7-----3-----5-------------------------------------3-----5------------------------]

bridge:
listen to the palm muting sometimes he isnt muting
p.m………………………………….


[---------------------------------------------5-----5------------------------------]
[---------------------7-----------------------7-----5------------------------------]
[-7-------7-----4-----7-----6-----7-----4-----7-----6------------------------------]
[-9-(x32)-9-(x4)5-(x4)7-(x4)7-(x4)9-(x4)5-(x4)7-(x4)7-(x4)--pick slide-------------]
[-9-------9-----5-----5-----7-----9-----5-----5-----7------------------------------]
[-7-------7-----3-----------5-----7-----3-----------5------------------------------]

p.m……… do the 2 with you thumb


[--------7-----4-----5-----5-----------------------------3---3---0--3-----5--------]
[--------7-----4-----7-----5-----------------7-----------3---3---0--3-----5--------]
[--------7-----4-----7-----6-----7-----4-----7-----6-----4---2---0--4-(x4)6-(x4)---]
[--------9-(x4)5-(x4)7-(x4)7-(x4)9-(x4)5-(x4)7-(x4)7-(x4)5---0---2--5-----7--------]
[--------9-----5-----5-----7-----9-----5-----5-----7-----5---0---2--5-----7--------]
[--------7-----3-----------5-----7-----3-----------5-----3---2---0--3-----5--------]

i will put the solo up when i figure it out

please respond and rate it thanx, jeff l.

intro x1
verse1 x1
chorus x1
verse2 x1
chorus x1
bridge x1
chorus x1

To play the most songs, including Sacrifice Theory by AFI by ukulele, the most crucial basic ukulele chords to learn are C chord, D chord, G chord, and Em chord.
These set you up to play a ton of songs, and each of them is easy to learn.

If you are searching for This Time Imperfect ukulele chords, you’ve visit to the right place.
You can play versatile instrument This Time Imperfect using ukulele or guitar.
This song by AFI can also be played by that instruments.
=

This Time Imperfect chords has rhythm and included in Other Songs album.
You can also get another musical style, including jazz ukulele chords, country music ukulele chords, pop ukulele chords, world music ukulele chords, and rock ukulele chords here.

This Time Imperfect by AFI Ukulele Chords


#
#This is the song in STANDARD TUNING.
#
#
#Key: Ebm.
#
#
#
#
I cannot [Db/F]leave here, I cannot stay
Forever h[Db/F]aunted, more than afraid
Asphyxia[Db/F]te on words I would say
I’m drawn to a [Db/F]blackened sky as I turn blue

There are no [Db/F]flowers
No, not this time
There will be no angels
Gracing the lines
Just these stark words I find
I’d show a [Db/F]smile
But I’m too weak
I’d share with you
Could I only speak
Just how much this hurts me

Gb Db/F Ebm x 2

I cannot [Db/F]stay here, I cannot leave
Just like all [Db/F]I loved I’m make believe
Imagined [Db/F]heart, I disappear seems
No one will a[Db/F]ppear here and make me real

There are no [Db/F]flowers
No, not this time
There will be no angels
Gracing the lines
Just these stark words I find
I’d show a [Db/F]smile
But I’m too weak
I’d share with you
Could I only speak
Just how much this hurts me

I’d tell you how it haunts me [Gb/F]
I’d tell you how it haunts me [Gb/F]
I’d tell you how it haunts me [Gb/F]
You don’t care that it haunts me [Gb/F]

Cb Db (not sure about this, don’t have time to work it out properly)

There are no [Db/F]flowers
No, not this time
There will be no angels
Gracing the lines
Just these stark words I find
I’d show a [Db/F]smile
But I’m too weak
I’d share with you
Could I only speak
Just how much this hurts me
Just how much this hurts me
Just how much you…

To play the most songs, including This Time Imperfect by AFI by ukulele, the most crucial basic ukulele chords to learn are C chord, D chord, G chord, and Em chord.
These set you up to play a a lot of songs, and each of them is easy to learn.

If you are looking for Summer Shudder ukulele chords, you’ve come to the right place.
You can play versatile instrument Summer Shudder using ukulele or guitar.
This song by AFI can also be played by that instruments.
=

Summer Shudder chords has rhythm and included in DECEMBERUNDERGROUND (2006) album.
You can also get another musical genres, including jazz ukulele chords, country music ukulele chords, pop ukulele chords, world music ukulele chords, and rock ukulele chords here.

Summer Shudder by AFI Ukulele Chords


[Decemberunderground]

By: Joshua Oliveira
Tuning:C# G# C# F# A# D#

– [00:00] – [00:14]

[Intro/Verse 1] – [00:14] – [00:36]
V V


- ------------------------------------------------------------------|
- ------------------------------------------------------------------|
- -------7----------------9p7------------7----------------9p7h9-----|
- -7/9-9-7-9-7/9-129-9-0~----x7~--7/9-9-7-9-7/9-129-9-0~------x7~-|
- -7/9-9-5-9-7/9-129-9-0~----x7~--7/9-9-5-9-7/9-129-9-0~------x7~-|
- -7/9-9---9-7/9-129-9-0~----x7~--7/9-9---9-7/9-129-9-0~------x7~-|

V


---------------------------------------------------------------|
---------------------------------------------------------------|
--------------------------9p7-------------7--------------------|
-7/9-9-129-9----7/9-129-0~-----x7~---7/9-9-7-9-7/9-129-9-0-0-0-|
-7/9-9-129-9----7/9-129-0~-----x7~---7/9-9-5-9-7/9-129-9-0-0-0-|
-7/9-9-129-9----7/9-129-0~-----x7~---7/9-9---9-7/9-129-9-0-0-0-|

PM …..


-----------------------|
-----------------------|
-----------------------|
-0-0-0-0-x-x-x-x-x-x-x-|
-0-0-0-0-x-x-x-x-x-x-x-|
-0-0-0-0-x-x-x-x-x-x-x-|

.

[Chorus 1, Guitar 1] – [00:36] – [00:48]
V


- --------------------------------------------------------------|
- --------------------------------------------------------------|
- --------------------------------------------------------------|
- -5-5-5-5--7-7-7-7--9-9-9-9--9-9-9-9--5-5-5-5--7-7-7-7-0~--x7~-|
- -5-5-5-5--7-7-7-7--9-9-9-9--9-9-9-9--5-5-5-5--7-7-7-7-0~--x7~-|
- -5-5-5-5--7-7-7-7--9-9-9-9--9-9-9-9--5-5-5-5--7-7-7-7-0~--x7~-|

[Chorus 1, Guitar 2] – [00:37] – [00:48]


- --------------------------------------------------------------|
- --------------10h11p10----------------------------------------|
- -11-11-11-11----------12p11~--These two scores are not in any-|
- -x--x--x--x-------------------way lined up, just so you know.-|
- -9--9--9--9---------------------------------------------------|
- -0--0--0--0---------------------------------------------------|

[Bridge 1] – [00:48] – [00:59]


- ----------------------------------------------------------------------|
- ----------------------------------------------------------------------|
- -----------------12-------11-------7/11-------------------14----------|
- -9-9-9-9-9-9-9-9----9-9-9----9-9-9-9/12-12-12-12-12-12-12----12-12-12-|
- ----------------------------------------------------------------------|
- ----------------------------------------------------------------------|

PM …………… ….. ….. …………….. ……..


-----------------------------------------------------------------------|
-----------------------------------------------------------------------|
-12p11-----------------------12-------11-------7-7-7-7-7-7-7-7-6-6-6-6-|
-------14p12-9-9-9-9-9-9-9-9----9-9-9----9-9-9-9-9-9-9-0-0-0-0-0-0-0-0-|
-----------------------------------------------------------------------|
-----------------------------------------------------------------------|

PM …………… ….. ………

[Verse 2 Bass] – [00:59] – [01:07]

[Verse 2 Guitar] – [01:07] – [01:21]


- --------------------------------------------------------------------|
- -00-000-000-000--------------0--------------------------------------|
- -44-444-444-444--------------4------------11-11-11-11-9-9-9-9-12-12-|
- -----------------2h4-4-7-4-4---7/9-129-9-0~------------------------|
- -----------------0h2-2-5-2-2---7/9-129-9-0~------------------------|
- -------------------------------7/9-129-9-0~------------------------|
-------------------------------------------------------------------|
-------------------------------------------------------------------|
-12-12-11-11-11-11---------7-7------------------------------Flange-|
-------------------7/9-9-9-7-7-9-9-7/9-129-9-0-0-0-0-0-0-0--Here--|
-------------------7/9-9-9-5-5-9-9-7/9-129-9-0-0-0-0-0-0-0--------|
-------------------7/9-9-9-----9-9-7/9-129-9-0-0-0-0-0-0-0--------|

PM …….

[Chorus 2, Guitar 1] – [01:21] – [01:44]


- -------------------------------------------------------------------|
- -------------------------------------------------------------------|
- -------------------------------------------------------------------|
- -5-5-5-5--7-7-7-7--9-9-9-9--9-9-9-9--5-5-5-5--7-7-7-7--9-9-9-9-9-9-|
- -5-5-5-5--7-7-7-7--9-9-9-9--9-9-9-9--5-5-5-5--7-7-7-7--9-9-9-9-9-9-|
- -5-5-5-5--7-7-7-7--9-9-9-9--9-9-9-9--5-5-5-5--7-7-7-7--9-9-9-9-9-9-|
------------------------------------------------------------------|
------------------------------------------------------------------|
------------------------------------------------------------------|
-9-9-0-0-0-0-0-0-0-0--5-5-5-5--7-7-7-7--9-9-9-9--9-9-9-9--5-5-5-5-|
-9-9-0-0-0-0-0-0-0-0--5-5-5-5--7-7-7-7--9-9-9-9--9-9-9-9--5-5-5-5-|
-9-9-0-0-0-0-0-0-0-0--5-5-5-5--7-7-7-7--9-9-9-9--9-9-9-9--5-5-5-5-|

V


-----------------|
-----------------|
-----------------|
-7-7-7-7--0~--x7-|
-7-7-7-7--0~--x7-|
-7-7-7-7--0~--x7-|

[Chorus 2, Guitar 2] – [01:22] – [01:44]


- ---------------------------------------------|
- --------------10h11p10-----------------------|
- -11-11-11-11----------12p11~-----9p7h9p7/11~-|
- -x--x--x--x----------------------------------|
- -9--9--9--9----------------------------------|
- -0--0--0--0----------------------------------|

[Bridge 2, Guitar 1] – [01:44] – [02:18]


- ----------------------------------------------------------------------|
- ----------------------------------------------------------------------|
- -----------------12-------11-------7/11-------------------14----------|
- -9-9-9-9-9-9-9-9----9-9-9----9-9-9-9/12-12-12-12-12-12-12----12-12-12-|
- ----------------------------------------------------------------------|
- ----------------------------------------------------------------------|

PM …………… ….. ….. …………….. ……..


-----------------------------------------------------------------------|
-----------------------------------------------------------------------|
-12p11-----------------------12-------11-------7-7-7-7-7-7-7-7-6-6-6-6-|
-------14p12-9-9-9-9-9-9-9-9----9-9-9----9-9-9-9-9-9-9-0-0-0-0-0-0-0-0-|
-----------------------------------------------------------------------|
-----------------------------------------------------------------------|

PM …………… ….. ………


---------------------------------------------------------------------|
---------------------------------------------------------------------|
---------------------------------------------------------------------|
-0-0-0-0--7~-9-9-9-9--7~-5-5-5-5-5-5-5-5-7-7-7-7-7-7-7-7-9-9-9-9-9-9-|
-0-0-0-0--7~-9-9-9-9--7~-5-5-5-5-5-5-5-5-7-7-7-7-7-7-7-7-9-9-9-9-9-9-|
-0-0-0-0--7~-9-9-9-9--7~-5-5-5-5-5-5-5-5-7-7-7-7-7-7-7-7-9-9-9-9-9-9-|
---------------------------------------------------------------------|
---------------------------------------------------------------------|
---------------------------------------------------------------------|
-9-9-5-5-5-5-5-5-5-5-0-0-0-0--7~-9-9-9-9--7~-5-5-5-5-5-5-5-5-7-7-7-7-|
-9-9-5-5-5-5-5-5-5-5-0-0-0-0--7~-9-9-9-9--7~-5-5-5-5-5-5-5-5-7-7-7-7-|
-9-9-5-5-5-5-5-5-5-5-0-0-0-0--7~-9-9-9-9--7~-5-5-5-5-5-5-5-5-7-7-7-7-|
-----------------------------------------|
-----------------------------------------|
-----------------------------------------|
-7-7-7-7-9-9-9-9-9-9-9-9-5-5-5-5-5-5-5-5-|
-7-7-7-7-9-9-9-9-9-9-9-9-5-5-5-5-5-5-5-5-|
-7-7-7-7-9-9-9-9-9-9-9-9-5-5-5-5-5-5-5-5-|

[Bridge 2, Guitar 2] – [01:56] – [02:18]


- --------------------------------------------------------------------|
- --------------------------------------------------------------------|
- -7-7-7-7-7-7-7-7--9-9-9-9-9/11-11-11-11-11-11-11-11-11--11-11-------|
- --------------------------------------------------------------12-12-|
- --------------------------------------------------------------------|
- --------------------------------------------------------------------|
--------------------------------------9-9-9-9-9/10-10-10-14-14-14-14-|
-10-10-------------------10-10---------------------------------------|
-------------11-11---------------------------------------------------|
-------12-12-------12-12-------12-12---------------------------------|
---------------------------------------------------------------------|
---------------------------------------------------------------------|
-14-14-14-14--------------------------------------------------------|
--------------------------------------------------------------------|
--------------7-7-7-7-7-7-7-7--9-9-9-9-9/11-11-11-11-11-11-11-11-11-|
--------------------------------------------------------------------|
--------------------------------------------------------------------|
--------------------------------------------------------------------|
-------------------------------------------------9-9-9-9-9/10-10-14-|
-------------10-10-------------------10-10--------------------------|
-11-11-------------------11-11--------------------------------------|
-------12-12-------12-12-------12-12-------12-12--------------------|
--------------------------------------------------------------------|
--------------------------------------------------------------------|
-14-14-14-14-14-14-14-|
----------------------|
----------------------|
----------------------|
----------------------|
----------------------|

– [02:18] – [02:29]


- -14~-15-12~-------17~-|
- -----------14-15~-----|
- ----------------------|
- ------Flange-On.------|
- ----------------------|
- ----------------------|

[Singing] – [02:29] – [02:40]

[Outro, Guitar 1] – [02:40] – [03:07]


- -------------------------------------------------------------------|
- -------------------------------------------------------------------|
- -------------------------------------------------------------------|
- -5-5-5-5--7-7-7-7--9-9-9-9--9-9-9-9--5-5-5-5--7-7-7-7--9-9-9-9-9-9-|
- -5-5-5-5--7-7-7-7--9-9-9-9--9-9-9-9--5-5-5-5--7-7-7-7--9-9-9-9-9-9-|
- -5-5-5-5--7-7-7-7--9-9-9-9--9-9-9-9--5-5-5-5--7-7-7-7--9-9-9-9-9-9-|
------------------------------------------------------------------|
------------------------------------------------------------------|
------------------------------------------------------------------|
-9-9-0-0-0-0-0-0-0-0--5-5-5-5--7-7-7-7--9-9-9-9--9-9-9-9--5-5-5-5-|
-9-9-0-0-0-0-0-0-0-0--5-5-5-5--7-7-7-7--9-9-9-9--9-9-9-9--5-5-5-5-|
-9-9-0-0-0-0-0-0-0-0--5-5-5-5--7-7-7-7--9-9-9-9--9-9-9-9--5-5-5-5-|

V


-----------------|
-----------------|
-----------------|
-7-7-7-7--0~--x7-|
-7-7-7-7--0~--x7-|
-7-7-7-7--0~--x7-|

[Outro, Guitar 2] – [02:41] – [03:07]


- ---------------------------------------------|
- --------------10h11p10-----------------------|
- -11-11-11-11----------12p11~-----9p7h9p7/11~-|
- -x--x--x--x----------------------------------|
- -9--9--9--9----------------------------------|
- -0--0--0--0----------------------------------|

[Symbols Used]
~ Let Ring.
/ Slide Up.
Slide Down.
x Dead Note.
p Pull Off.
h Hammer On.
V Up Stroke (Hit the strings towards you.).
Notes with these around them a Natural Harmonics.
PM… Palm Mute the notes with Dots (.) under them.

To play the most songs, including Summer Shudder by AFI by ukulele, the most crucial basic ukulele chords to learn are C chord, D chord, G chord, and Em chord.
These set you up to play a a lot of songs, and each of them is easy to master.

If you are searching for Clove Smoke Catharsis ukulele chords, you have visit to the best site.
You can play versatile instrument Clove Smoke Catharsis using ukulele or guitar.
This song by AFI can also be played by that instruments.
=

Clove Smoke Catharsis chords has rhythm and included in Black Sails in the Sunset (1999) album.
You can also find other musical style, including jazz ukulele chords, country music ukulele chords, pop ukulele chords, world music ukulele chords, and rock ukulele chords here.

Clove Smoke Catharsis by AFI Ukulele Chords


By: Afi
Tabbed by thod_leach

Intro: Repeat with this chord at the end:

|—————————————–|————————————————–|
|—————————————–|————————————————–|
|—————————————–|————————————————–|
|–7–7-7–7–7–7-7–7–7-7-7–7–7-7-7–|——————–7-7–7-7–7-7—————–|
|–5–5-5–8–7–7-7–7–7-7-7–8–8-8-8–|——————–5-5–5-5–5-5—————–|
|–5–5-5–5–5–5-5–6–6-6-6–6–6-6-6–|——————–9-9–9-9–9-9—————–|

verse 1:

|–5—–5——-5—–5—————————————————-|
|–6——-6—–5——–5————————————————-|
|–7–7—–7—-7————7——————————–7————|
|–7–7———-7–7———–7–7—–7———7–7———-7———-|
|–5——————————-5———5—–5–5————5——–|
|–5——————————-6–6———6–5–5–5———–5——|

verse 1 (distorted guitar):

|–5–5-5-5–5–5-5–5-5———————————————|
|–6–6-6-6–5–5-5–5-5———————————————|
|–7–7-7-7–7–7-7–7-7–7–7-7-7———————————–|
|–7–7-7-7–7–7-7–7-7–7–7-7-7–7–7-7-7–7-7——————–|
|–5–5-5-5–5–5-5–5-5–5–5-5-5–5–5-5-5–5-5——————–|
|–5–5-5-5–5–5-5–5-5–6–6-6-6–8–8-8-8–9-9——————–|

chorus: (I’m not including the exact amount of strums here, just the chords)
on the second chord (A major) of the second measure of the chorus,
there is harmonics on the E string

|–5—5—6—8—-10———-5—5—6—8—-10——————–|
|–6—5—6—8—-10———-6—5—6—10—12——————–|
|–7—6—7—9—-10–9——-7—6—7—10—12—-13————–|
|–7—7—8—10—11———-7—7—8—10—12——————–|
|–5—7—8—10—11–7——-5—7—8—8—-10—-11————–|
|–5—5—6—8—-9—x——-5—5—6—8—-10——————–|

verse 2 and chorus 2 are basically the same as the first except there is less
individually picked strings and the chorus is doubled with and extra octave chord at the end:
[–16–]

D ——-

[-14–]

Break:
At the end:

|–7—9—10—8—8—————–9——————-|
|–7—9—10–10—8—————–9——————-|
|–7—10–11–10—9—————-10——————-|
|–9—11–12–10—10—————11——————-|
|–9—11–12—8—10—————11——————-|
|–7—9—10—8—8—————–9——————-|

Breakdown: (once again, the exact strums aren’t represented)

At the end:

|———————————————————|
|———————————————————|
|——————————–10–9———7———-|
|–7–7–7–7–7–7–10–11——————————-|
|–5–8–7–7–8–7–7—-7——7—7———5———-|
|–5–5–5–6–6–8–8—-9——9—9——————–|

repeat chorus and then finish out song on this octave chord:

G —7—
D ——-
A —5—

To play the this songs, including Clove Smoke Catharsis by AFI by ukulele, the most crucial basic ukulele chords to learn are C chord, D chord, G chord, and Em chord.
These set you up to play a many of songs, and each of them is easy to learn.

If you are searching for Summer Shudder ukulele chords, you already come to the right site.
You can play versatile instrument Summer Shudder using ukulele or guitar.
This song by AFI can also be played by that instruments.
=

Summer Shudder chords has rhythm and included in DECEMBERUNDERGROUND (2006) album.
You can also get another musical style, including jazz ukulele chords, country music ukulele chords, pop ukulele chords, world music ukulele chords, and rock ukulele chords here.

Summer Shudder by AFI Ukulele Chords

[Decemberunderground]

By: Joshua Oliveira
Tuning:C# G# C# F# A# D#

– [00:00] – [00:14]

[Intro/Verse 1] – [00:14] – [00:36]
V V


- ------------------------------------------------------------------|
- ------------------------------------------------------------------|
- -------7----------------9p7------------7----------------9p7h9-----|
- -7/9-9-7-9-7/9-129-9-0~----x7~--7/9-9-7-9-7/9-129-9-0~------x7~-|
- -7/9-9-5-9-7/9-129-9-0~----x7~--7/9-9-5-9-7/9-129-9-0~------x7~-|
- -7/9-9---9-7/9-129-9-0~----x7~--7/9-9---9-7/9-129-9-0~------x7~-|

V


---------------------------------------------------------------|
---------------------------------------------------------------|
--------------------------9p7-------------7--------------------|
-7/9-9-129-9----7/9-129-0~-----x7~---7/9-9-7-9-7/9-129-9-0-0-0-|
-7/9-9-129-9----7/9-129-0~-----x7~---7/9-9-5-9-7/9-129-9-0-0-0-|
-7/9-9-129-9----7/9-129-0~-----x7~---7/9-9---9-7/9-129-9-0-0-0-|

PM …..


-----------------------|
-----------------------|
-----------------------|
-0-0-0-0-x-x-x-x-x-x-x-|
-0-0-0-0-x-x-x-x-x-x-x-|
-0-0-0-0-x-x-x-x-x-x-x-|

.

[Chorus 1, Guitar 1] – [00:36] – [00:48]
V


- --------------------------------------------------------------|
- --------------------------------------------------------------|
- --------------------------------------------------------------|
- -5-5-5-5--7-7-7-7--9-9-9-9--9-9-9-9--5-5-5-5--7-7-7-7-0~--x7~-|
- -5-5-5-5--7-7-7-7--9-9-9-9--9-9-9-9--5-5-5-5--7-7-7-7-0~--x7~-|
- -5-5-5-5--7-7-7-7--9-9-9-9--9-9-9-9--5-5-5-5--7-7-7-7-0~--x7~-|

[Chorus 1, Guitar 2] – [00:37] – [00:48]


- --------------------------------------------------------------|
- --------------10h11p10----------------------------------------|
- -11-11-11-11----------12p11~--These two scores are not in any-|
- -x--x--x--x-------------------way lined up, just so you know.-|
- -9--9--9--9---------------------------------------------------|
- -0--0--0--0---------------------------------------------------|

[Bridge 1] – [00:48] – [00:59]


- ----------------------------------------------------------------------|
- ----------------------------------------------------------------------|
- -----------------12-------11-------7/11-------------------14----------|
- -9-9-9-9-9-9-9-9----9-9-9----9-9-9-9/12-12-12-12-12-12-12----12-12-12-|
- ----------------------------------------------------------------------|
- ----------------------------------------------------------------------|

PM …………… ….. ….. …………….. ……..


-----------------------------------------------------------------------|
-----------------------------------------------------------------------|
-12p11-----------------------12-------11-------7-7-7-7-7-7-7-7-6-6-6-6-|
-------14p12-9-9-9-9-9-9-9-9----9-9-9----9-9-9-9-9-9-9-0-0-0-0-0-0-0-0-|
-----------------------------------------------------------------------|
-----------------------------------------------------------------------|

PM …………… ….. ………

[Verse 2 Bass] – [00:59] – [01:07]

[Verse 2 Guitar] – [01:07] – [01:21]


- --------------------------------------------------------------------|
- -00-000-000-000--------------0--------------------------------------|
- -44-444-444-444--------------4------------11-11-11-11-9-9-9-9-12-12-|
- -----------------2h4-4-7-4-4---7/9-129-9-0~------------------------|
- -----------------0h2-2-5-2-2---7/9-129-9-0~------------------------|
- -------------------------------7/9-129-9-0~------------------------|
-------------------------------------------------------------------|
-------------------------------------------------------------------|
-12-12-11-11-11-11---------7-7------------------------------Flange-|
-------------------7/9-9-9-7-7-9-9-7/9-129-9-0-0-0-0-0-0-0--Here--|
-------------------7/9-9-9-5-5-9-9-7/9-129-9-0-0-0-0-0-0-0--------|
-------------------7/9-9-9-----9-9-7/9-129-9-0-0-0-0-0-0-0--------|

PM …….

[Chorus 2, Guitar 1] – [01:21] – [01:44]


- -------------------------------------------------------------------|
- -------------------------------------------------------------------|
- -------------------------------------------------------------------|
- -5-5-5-5--7-7-7-7--9-9-9-9--9-9-9-9--5-5-5-5--7-7-7-7--9-9-9-9-9-9-|
- -5-5-5-5--7-7-7-7--9-9-9-9--9-9-9-9--5-5-5-5--7-7-7-7--9-9-9-9-9-9-|
- -5-5-5-5--7-7-7-7--9-9-9-9--9-9-9-9--5-5-5-5--7-7-7-7--9-9-9-9-9-9-|
------------------------------------------------------------------|
------------------------------------------------------------------|
------------------------------------------------------------------|
-9-9-0-0-0-0-0-0-0-0--5-5-5-5--7-7-7-7--9-9-9-9--9-9-9-9--5-5-5-5-|
-9-9-0-0-0-0-0-0-0-0--5-5-5-5--7-7-7-7--9-9-9-9--9-9-9-9--5-5-5-5-|
-9-9-0-0-0-0-0-0-0-0--5-5-5-5--7-7-7-7--9-9-9-9--9-9-9-9--5-5-5-5-|

V


-----------------|
-----------------|
-----------------|
-7-7-7-7--0~--x7-|
-7-7-7-7--0~--x7-|
-7-7-7-7--0~--x7-|

[Chorus 2, Guitar 2] – [01:22] – [01:44]


- ---------------------------------------------|
- --------------10h11p10-----------------------|
- -11-11-11-11----------12p11~-----9p7h9p7/11~-|
- -x--x--x--x----------------------------------|
- -9--9--9--9----------------------------------|
- -0--0--0--0----------------------------------|

[Bridge 2, Guitar 1] – [01:44] – [02:18]


- ----------------------------------------------------------------------|
- ----------------------------------------------------------------------|
- -----------------12-------11-------7/11-------------------14----------|
- -9-9-9-9-9-9-9-9----9-9-9----9-9-9-9/12-12-12-12-12-12-12----12-12-12-|
- ----------------------------------------------------------------------|
- ----------------------------------------------------------------------|

PM …………… ….. ….. …………….. ……..


-----------------------------------------------------------------------|
-----------------------------------------------------------------------|
-12p11-----------------------12-------11-------7-7-7-7-7-7-7-7-6-6-6-6-|
-------14p12-9-9-9-9-9-9-9-9----9-9-9----9-9-9-9-9-9-9-0-0-0-0-0-0-0-0-|
-----------------------------------------------------------------------|
-----------------------------------------------------------------------|

PM …………… ….. ………


---------------------------------------------------------------------|
---------------------------------------------------------------------|
---------------------------------------------------------------------|
-0-0-0-0--7~-9-9-9-9--7~-5-5-5-5-5-5-5-5-7-7-7-7-7-7-7-7-9-9-9-9-9-9-|
-0-0-0-0--7~-9-9-9-9--7~-5-5-5-5-5-5-5-5-7-7-7-7-7-7-7-7-9-9-9-9-9-9-|
-0-0-0-0--7~-9-9-9-9--7~-5-5-5-5-5-5-5-5-7-7-7-7-7-7-7-7-9-9-9-9-9-9-|
---------------------------------------------------------------------|
---------------------------------------------------------------------|
---------------------------------------------------------------------|
-9-9-5-5-5-5-5-5-5-5-0-0-0-0--7~-9-9-9-9--7~-5-5-5-5-5-5-5-5-7-7-7-7-|
-9-9-5-5-5-5-5-5-5-5-0-0-0-0--7~-9-9-9-9--7~-5-5-5-5-5-5-5-5-7-7-7-7-|
-9-9-5-5-5-5-5-5-5-5-0-0-0-0--7~-9-9-9-9--7~-5-5-5-5-5-5-5-5-7-7-7-7-|
-----------------------------------------|
-----------------------------------------|
-----------------------------------------|
-7-7-7-7-9-9-9-9-9-9-9-9-5-5-5-5-5-5-5-5-|
-7-7-7-7-9-9-9-9-9-9-9-9-5-5-5-5-5-5-5-5-|
-7-7-7-7-9-9-9-9-9-9-9-9-5-5-5-5-5-5-5-5-|

[Bridge 2, Guitar 2] – [01:56] – [02:18]


- --------------------------------------------------------------------|
- --------------------------------------------------------------------|
- -7-7-7-7-7-7-7-7--9-9-9-9-9/11-11-11-11-11-11-11-11-11--11-11-------|
- --------------------------------------------------------------12-12-|
- --------------------------------------------------------------------|
- --------------------------------------------------------------------|
--------------------------------------9-9-9-9-9/10-10-10-14-14-14-14-|
-10-10-------------------10-10---------------------------------------|
-------------11-11---------------------------------------------------|
-------12-12-------12-12-------12-12---------------------------------|
---------------------------------------------------------------------|
---------------------------------------------------------------------|
-14-14-14-14--------------------------------------------------------|
--------------------------------------------------------------------|
--------------7-7-7-7-7-7-7-7--9-9-9-9-9/11-11-11-11-11-11-11-11-11-|
--------------------------------------------------------------------|
--------------------------------------------------------------------|
--------------------------------------------------------------------|
-------------------------------------------------9-9-9-9-9/10-10-14-|
-------------10-10-------------------10-10--------------------------|
-11-11-------------------11-11--------------------------------------|
-------12-12-------12-12-------12-12-------12-12--------------------|
--------------------------------------------------------------------|
--------------------------------------------------------------------|
-14-14-14-14-14-14-14-|
----------------------|
----------------------|
----------------------|
----------------------|
----------------------|

– [02:18] – [02:29]


- -14~-15-12~-------17~-|
- -----------14-15~-----|
- ----------------------|
- ------Flange-On.------|
- ----------------------|
- ----------------------|

[Singing] – [02:29] – [02:40]

[Outro, Guitar 1] – [02:40] – [03:07]


- -------------------------------------------------------------------|
- -------------------------------------------------------------------|
- -------------------------------------------------------------------|
- -5-5-5-5--7-7-7-7--9-9-9-9--9-9-9-9--5-5-5-5--7-7-7-7--9-9-9-9-9-9-|
- -5-5-5-5--7-7-7-7--9-9-9-9--9-9-9-9--5-5-5-5--7-7-7-7--9-9-9-9-9-9-|
- -5-5-5-5--7-7-7-7--9-9-9-9--9-9-9-9--5-5-5-5--7-7-7-7--9-9-9-9-9-9-|
------------------------------------------------------------------|
------------------------------------------------------------------|
------------------------------------------------------------------|
-9-9-0-0-0-0-0-0-0-0--5-5-5-5--7-7-7-7--9-9-9-9--9-9-9-9--5-5-5-5-|
-9-9-0-0-0-0-0-0-0-0--5-5-5-5--7-7-7-7--9-9-9-9--9-9-9-9--5-5-5-5-|
-9-9-0-0-0-0-0-0-0-0--5-5-5-5--7-7-7-7--9-9-9-9--9-9-9-9--5-5-5-5-|

V


-----------------|
-----------------|
-----------------|
-7-7-7-7--0~--x7-|
-7-7-7-7--0~--x7-|
-7-7-7-7--0~--x7-|

[Outro, Guitar 2] – [02:41] – [03:07]


- ---------------------------------------------|
- --------------10h11p10-----------------------|
- -11-11-11-11----------12p11~-----9p7h9p7/11~-|
- -x--x--x--x----------------------------------|
- -9--9--9--9----------------------------------|
- -0--0--0--0----------------------------------|

[Symbols Used]
~ Let Ring.
/ Slide Up.
Slide Down.
x Dead Note.
p Pull Off.
h Hammer On.
V Up Stroke (Hit the strings towards you.).
Notes with these around them a Natural Harmonics.
PM… Palm Mute the notes with Dots (.) under them.

To play the most songs, including Summer Shudder by AFI by ukulele, the most important basic ukulele chords to learn are C chord, D chord, G chord, and Em chord.
These set you up to play a ton of songs, and each of them is easy to master.

If you are looking for Ever and a Day ukulele chords, you’ve visit to the best place.
You can play versatile instrument Ever and a Day using ukulele or guitar.
This song by AFI can also be played by that instruments.
=

Ever and a Day chords has rhythm and included in The Art of Drowning (2000) album.
You can also get another musical genres, including jazz ukulele chords, country music ukulele chords, pop ukulele chords, world music ukulele chords, and rock ukulele chords here.

Ever and a Day by AFI Ukulele Chords


^ palm mute

Octave Intro

e-|———————————————————————-
B-|———————————————————————-
G-|—888–777–888–555–888–10″–121212–10″–888–10″–888–777——
D-|———————————————————————-
A-|—666–555–666–333–666–888–101010–888–666–888–666–555——
E-|———————————————————————-
e-|———————————————————————-
B-|———————————————————————-
G-|—888–777–888–555–888–10″–121212121212–131313131313–10″——
D-|———————————————————————-
A-|—666–555–666–333–666–888–101010101010–111111111111–888888—
E-|———————————————————————-

^^ “
Verse
no distortion
PART A PART B PART C PART D

e-|———————————————————————-
B-|——————————————-(distortion)—————
G-|——–5————-8————-3——–5-5-5-5——————
D-|———————————————5-5-5-5——————
A-|—3333–333—–6666–666—–1111–111—–3-3-3-3——————
E-|———————————————————————-

^^^^ ^^^ ^^^^ ^^^ ^^^^ ^^^

[ PART A X 4 ] [ PART B X 1 ]
[ PART B X 1 ] [ PART C X 1 ]
[ PART C X 1 ] X2 [ PART A X 1 ] X 1
[ PART A X 2 ] [ PART D x 1 ]

the second verse is the same as this
except the whole thing has distortion

Chorus

e-|———————————-|———————————–
B-|———————————-|———————————–
G-|–8-8-8———————12-10-|-8-8-8———————12-12-10
D-|–8-8-8–8-8-8-8-/-10101010——-|-8-8-8–8-8-8-8-/-10101010———
A-|–6-6-6–8-8-8-8-/-10101010-10-8–|-6-6-6–8-8-8-8-/-10101010-10-10-8-
E-|———6-6-6-6-/-8-8-8-8——–|——–6-6-6-6-/-8-8-8-8———-

bridge

e-|———————————————————————-
B-|———————————————————————-
G-|—–3-/-5-5-5-5-5-5—-3-/-8-8-8————————————
D-|—–3-/-5-5-5-5-5-5—-3-/-8-8-8————————————
A-|—–1-/-3-3-3-3-3-3—-1-/-6-6-6————————————
E-|———————————————————————-

To play the this songs, including Ever and a Day by AFI by ukulele, the most important basic ukulele chords to learn are C chord, D chord, G chord, and Em chord.
These set you up to play a many of songs, and each of them is easy to learn.

If you are searching for Prelude 12/21 ukulele chords, you already visit to the best place.
You can play versatile instrument Prelude 12/21 using ukulele or guitar.
This song by AFI can also be played by that instruments.
=

Prelude 12/21 chords has rhythm and included in DECEMBERUNDERGROUND (2006) album.
You can also find other musical style, including jazz ukulele chords, country music ukulele chords, pop ukulele chords, world music ukulele chords, and rock ukulele chords here.

Prelude 12/21 by AFI Ukulele Chords

[Prelude 12/21]

{Decemberunderground]

By: Joshua Oliveira
Tuning:D# G# C# F# A# D#

There’s not much guitar in this song but I tabbed out some of the
sounds I heard..

[High Pitched Noises] – [00:18] – [00:53]


- ---12~---------|
- ------12-13-10-| I'm gonna be lazy here n say that its played wayy
- -9~------------| to many times to tab out..so just play that from
- ---------------| 00:18 till 00:53.
- ---------------|
- ---------------|

[Orchestra] – [00:56] – [01:08] AND [01:22] – [01:34–|


- ----------------------------------------------------|
- -----10-12---13---10-12-----------------------------| This is that orchestra sorta noise you
- -9---9--11---12---9--11-----------------------------| hear between the Oh's once the song picks
- -9---7--9----10---7--9------------------------------| up. Once again it's played too many times
- -7--------------------------------------------------| to tab each n every one of them.
- ----------------------------------------------------|

Now here’s the guitar.

[Actual Guitar] – [01:08] – [01:19]


- ------------------------------------------------------------------|
- ------------------------------------------------------------------|
- ------------------------------------------------------------------|
- -----------------------------------------------9-9-9-9-9-9-9-9-9--|
- -7-7-7-7-7-7-7-7-7-7-7-7-7-7-7-7-7-7-7-7-7-7-7-7-7-7-7-7-7-7-7-7--|
- -------------------------------------------------------0-0-0-0-0--|

PM …………………………………

[More Guitar] – [01:22] – [01:35]


- -------------------------------------------------------------------|
- -------------------------------------------------------------------|
- -----------------------------Acoustic------------------------------|
- -------------------------------------------------------------------|
- -7-7-7-7-7-7-7-7-7-7-7-7-7-7-7-7-7-7-7-7-7-7-7-7-7-7-7-7-7-7-7-7-7-|
- -------------------------------------------------------------------|

[End Noise] – [01:35] – [01:39]


- ---12~---------|
- ------12-13-10-|
- -9~------------|
- ---------------|
- ---------------|
- ---------------|

[Symbols Used]
~ Let Ring.
PM… Palm Mute the notes with dots(.)under them.

To play the most songs, including Prelude 12/21 by AFI by ukulele, the most important basic ukulele chords to learn are C chord, D chord, G chord, and Em chord.
These set you up to play a ton of songs, and each of them is easy to learn.

If you are looking for Miss Murder ukulele chords, you have come to the best site.
You can play versatile instrument Miss Murder using ukulele or guitar.
This song by AFI can also be played by that instruments.
=

Miss Murder chords has rhythm and included in DECEMBERUNDERGROUND (2006) album.
You can also find other musical genres, including jazz ukulele chords, country music ukulele chords, pop ukulele chords, world music ukulele chords, and rock ukulele chords here.

Miss Murder by AFI Ukulele Chords


Chorus:
Hey! Miss murder can i?
Hey! Miss murder can i?
Make Beauty stay if i
Take my life Whoa!

A Dm G F X2

Verse 1:
With just a look they shook
And heavens bowed before him.
Simply a look can break your heart.
The stars that pierce the sky;
He left them all behind.
We?re left to wonder why
He left us all behind.

Chorus:
Hey! Miss murder can i?
Hey! Miss murder can i?
Make Beauty stay if i
Take my life Whoa!

A Dm G E X2

Verse 2:
Dreams of his crash won?t pass
Oh, how they all adored him
Beauty will last when spiraled down.
The stars that mystify
He left them all behind.
And how his children cried
He left us all behind.

Chorus:
Hey! Miss murder can i?
Hey! Miss murder can i?
Make Beauty stay if i
Take my life Whoa!

Bridge:
A Dm C X2

What’s the hook, the twist
Within this verbose mystery?
I would gladly bet my life upon it.
That the ghost you love, your ray of light
Will fizzle out without hope.
We’re the empty set just floating through, wrapped in skin
Ever searching for what we were promised.
Reaching for that golden ring we’d never let go,
but who would ever let us put our filthy hands upon it?

A Dm C G X2

Chorus:
Hey! Miss murder can i?
Hey! Miss murder can i?
Make Beauty stay if i
Take my life Whoa!

Hey! Miss murder can i?
Hey! Miss murder can i?
Make Beauty stay if i
Take my life Whoa!

To play the this songs, including Miss Murder by AFI by ukulele, the most crucial basic ukulele chords to learn are C chord, D chord, G chord, and Em chord.
These set you up to play a a lot of songs, and each of them is easy to learn.

If you are looking for At a Glance ukulele chords, you’ve visit to the right place.
You can play versatile instrument At a Glance using ukulele or guitar.
This song by AFI can also be played by that instruments.
=

At a Glance chords has rhythm and included in Black Sails in the Sunset (1999) album.
You can also find another musical style, including jazz ukulele chords, country music ukulele chords, pop ukulele chords, world music ukulele chords, and rock ukulele chords here.

At a Glance by AFI Ukulele Chords


intro

—————————————————–|
—————————————————–|
-9—-9—-9—-9—-9—9—12-pick-this-count——|
-7—-8—-7—-8—-7—8—10-\\\\\\\\—–|
—00—00—00—00—0—0–0———————-|
—————————————————–|

intro

—————————————————–|
—————————————————–|
-9—-9—-9—-9—-9—9—————————|
-7—-8—-7—-8—-7—8—777888-777888-x-pick—|
—00—00—00—00—0—0-000000-000000-x\scrape-|
———————————————\—–|

verse

———————————————————————–|
———————————————————————–|
-10-777777777-3———10-777777777-3———10-777777777-3—000000-|
-10-777777777-3-3333333310-777777777-3-3–5555-10-777777777-3-3-555555-|
–8-555555555-1-33333333-8-555555555-1-3–3333–8-555555555-1-3-333444-|
–8-555555555-1-11111111-8-555555555-1-1–3333–8-555555555-1-1——–|

verse

———–|
———–|

[77777777777]
[77777777777]
[55555555555]
[55555555555]

chorus

———————————————|
———————————————|
————8888888888————5555555555-|

-5555555555-8888888888-8888888888-5555555555-|
-5555555555-6666666666-8888888888-3333333333-|
-3333333333-6666666666-6666666666-3333333333-|

chorus

——————————————————————-|
——————————————————————-|
————8888888888-55555555555–3333—————————|
-5555555555-8888888888-55555555555–3333-333-55555555555-xpick—-|
-5555555555-6666666666-33333333333–1111-333-55555555555-x\scrape-|
-3333333333-6666666666-33333333333——-111-33333333333—\—–|

verse

———————————————————————–|
———————————————————————–|
-10-777777777-3———10-777777777-3———10-777777777-3—000000-|
-10-777777777-3-3333333310-777777777-3-3–5555-10-777777777-3-3-555555-|
–8-555555555-1-33333333-8-555555555-1-3–3333–8-555555555-1-3-333444-|
–8-555555555-1-11111111-8-555555555-1-1–3333–8-555555555-1-1——–|

verse

—————|
—————|

77777777777—-|
77777777777-8-x
55555555555-8-x
55555555555-6-x

chorus

———————————————|
———————————————|
————8888888888————5555555555-|

-5555555555-8888888888-8888888888-5555555555-|
-5555555555-6666666666-8888888888-3333333333-|
-3333333333-6666666666-6666666666-3333333333-|

chorus

——————————————————————-|
——————————————————————-|
————8888888888-55555555555–3333——–8—222222222–22–|
-5555555555-8888888888-55555555555–3333-333-5–8—222222222–22–|
-5555555555-6666666666-33333333333–1111-333-5–6—000000000–00–|
-3333333333-6666666666-33333333333——-111-3–6-0-000000000–00–|

BRIDGE

|——————————————-|
|:—————————————–:|
|——————————————-|
|—-778877———–778877——10-10—-|
|:-55——66688866-55——666888———:|
|——————————————-|

BRIDGE

———————————————————————-|
——————————————————–555———–|
——————————————————–555-666666666-|
—778877———–778877——10-10—778877———555-777777777-|
-55——66688866-55——666888——-55——66688866-333-777777777-|
——————————————————–333-555555555-|

BRIDGE

———————————————————————-|
——————————————————–555———–|
——————————————————–555-666666666-|
—778877———–778877——10-10—778877———555-777777777-|
-55——66688866-55——666888——-55——66688866-333-777777777-|
——————————————————–333-555555555-|

BRIDGE

—————————————————|
-555————555——————————–|
-555-666666666–555-666666666———————-|
-555-777777777–555-777777777———–77777——|
-333-777777777–333-777777777—777777777-X—|
-333-555555555–333-555555555–5555-555555555-X\–|

chorus

———————————————|
———————————————|
————8888888888————5555555555-|

-5555555555-8888888888-8888888888-5555555555-|
-5555555555-6666666666-8888888888-3333333333-|
-3333333333-6666666666-6666666666-3333333333-|

chorus

———————————————|
———————————————|
————8888888888-55555555555–333——|
-5555555555-8888888888-55555555555–333–333-|
-5555555555-6666666666-33333333333–111–333-|
-3333333333-6666666666-33333333333——-111-|

chorus

———————————————|
———————————————|
————8888888888————5555555555-|

-5555555555-8888888888-8888888888-5555555555-|
-5555555555-6666666666-8888888888-3333333333-|
-3333333333-6666666666-6666666666-3333333333-|

chorus

———————————————|
———————————————|
————8888888888-55555555555–333——|
-5555555555-8888888888-55555555555–333–333-|
-5555555555-6666666666-33333333333–111–333-|
-3333333333-6666666666-33333333333——-111-|

OUTRO

|—————————————-|
|:————————————–:|
|—————————————-|
|—————————–77777777—|
|:–1111111-5555555-0000000-0-55555555–:|
|—3333333-66666661111111-0-55555555—|

OUTRO

———————————————————————|
———————————————–13———15———|
777-99-10-10-12———-15———14———-x\\\\–x\\\\-|
xxx-xx–x–x–x-\\\\–x-\\\–x\\\\-10———12———|
555-77–8–8-10———-13———12——————————-|
———————————————————————|

OUTRO

———————————————————————–|
16——–13———————————————————–|
-x\\\\-x\\\\-15—-14—-12—15—-14—-12–15—-14—-12—|
13——–10———-x\–x\–x\–x\–x\–x\-x\–x\–x\-|
———————13—-12—-10—13—-12—-10–13—-12—-10—|
———————————————————————–|

OUTRO

———————————————————————–|
———————————————————————–|
-10———14———12——–10——–/14——–7————–|
–x\\\\–x\\\\–x\\\–x\\\-/15\\\\x\\\\–5—|
–8———12———10———8——–/12——–5———-5—|
——————————————————————-3—|

To play the this songs, including At a Glance by AFI by ukulele, the most important basic ukulele chords to learn are C chord, D chord, G chord, and Em chord.
These set you up to play a a lot of songs, and each of them is easy to learn.

  • 1
  • 2