If you are searching for A Vicious Reforming of Features ukulele chords, you have come to the right site.
You can play versatile instrument A Vicious Reforming of Features using ukulele or guitar.
This song by After the Burial can also be played by that instruments.
=

A Vicious Reforming of Features chords has rhythm and included in Rareform (2008) album.
You can also find other musical style, including jazz ukulele chords, country music ukulele chords, pop ukulele chords, world music ukulele chords, and rock ukulele chords here.

A Vicious Reforming of Features by After the Burial Ukulele Chords


-------------------------------------------------------------------------------

After the Burial : A Vicious Reforming of Features


-------------------------------------------------------------------------------

Tabbed by: Foster (bornofmaya)
Website: http://www.last.fm/user/bornofmaya
Tuning: Drop B
Notes: This is my first tab! I used this video for help http://www.youtube.com/watch?vJYeXulJb8AI

Intro Riff (0:00 – 0:06)


|---------------------------------------|
|---------------------------------------|
|---------------------------------------|
|---------------------------------------|
|-4-4--4--4--4-4--4--4--4--4--4-4--4--4-|
|-6-6--6--6--6-6--6--6--6--6--6-6--6--6-|

R L R L R L R L R L R L R L

Intro/Main Riff (0:07 – 0:19)
Pattern: (A x2, B x1) x2
Notes: not sure about the rhythm.


|--------------------------|---------------|
|--------------------------|---------------|
|--------------------------|---------------|
|--------------------------|---------------|
|-4-44-4-44-4-44-4-44-4444-|4-44-4-44-4444-|
|-6-66-6-66-6-66-6-66-6666-|6-66-6-66-6666-|

Main Riff Variated (0:20 – 0:59)
Notes: just follow the rhythm of the song.


|---------------------------------------------------------|
|---------------------------------------------------------|
|----18----18-------16----16------14----14-------13----13-|
|-15-----15-----14------14----13------13-----11------11---|
|---------------------------------------------------------|
|---------------------------------------------------------|

Riff 1 (1:00 – 1:26)
Repeat: x8


|------------------------------------------|
|------------------------------------------|
|------------------------------------------|
|------------------------------------------|
|------------------------------------------|
|-6668-6-6668-6-668-6-668-6-68-6-68-66-6-6-|

Riff 2 (1:53 – 2:17)
Pattern: A x12, B x12, C x12, D x12


|-----|-----|------|--------|
|-----|-----|------|--------|
|-----|-----|------|--------|
|-----|-----|------|--------|
|---5-|---8-|---12-|-----15-|
|-00--|-33--|-77---|-1010---|

Riff 3 (2:18 – 2:20)


|-------------------------------|
|-------------------------------|
|-------------------------------|
|-------------------------------|
|-12---12---11-11--11---11---11-|
|----7----7---6--6----6----6----|

Riff 4 (2:21 – 2:47)
Pattern: A x8, B x8


|-------------------|------------------|
|-------------------|------------------|
|-------------------|------------------|
|-------------------|------------------|
|-12-12b--12---12---|-11-11--11---11---|
|---7---7----7----7-|---6--6----6----6-|

Riff 5 (2:49 – 3:15)
Repeat: x8
Notes: Not sure about this.


|---------------------------------|
|---------------------------------|
|---------------------------------|
|---------------------------------|
|-12---12---11-11-----------------|
|----7----7---6--6-11-10-8-10-876-|

Riff 6 (3:16 – 3:41)
Repeat: x2


|----------------------------------------------|--------------------------------------------------|
|----------------------------------------------|--------------------------------------------------|
|----------------------------------------------|--------------------------------------------------|
|----------------------------------------------|--------------------------------------------------|
|----------------------------------------------|--------------------------------------------------|
|-7-6--66-6-6--66-6-6-6--66--66-6-6--66-6-6-7b-|-7-6--66-6-6--66-6-6--66--66-6-6--66-6-6-66--66-6-|

Riff 7 (3:42 – 4:21)
Repeat: x2
Notes: not sure about the rhythm.


|-------------------|---------------------|----------------|-------|
|-------------------|---------------------|----------------|-------|
|-------------------|---------------------|----------------|-------|
|-11---11--11----11-|-9---9---9---9---9---|-7--7---7---7---|-6---6-|
|-------------------|---------------------|----------------|-------|
|---11---11---11----|--9----9---9---9---9-|---7--7---7---7-|---6---|
|-------------|-----------------|-------------------|----------------------|----------------|
|-------------|-----------------|-------------------|----------------------|----------------|
|-------------|-----------------|-------------------|----------------------|----------------|
|-16----16----|-15---15---15----|-14----14----14----|-13----13----13----13-|-12----12----12-|
|-------------|-----------------|-------------------|----------------------|----------------|
|----16----16-|----15---15---15-|----14----14----14-|----13----13----13----|----12----12----|

(4:22 – 4:29)

|—–|
|—–|
|—–|
|-11~-|
|-11~-|
|-11~-|

Ending (4:30 – 5:49)
Repeat: until end
Notes: no solo.


|-------------------------------------------------------|
|-------------------------------------------------------|
|-------------------------------------------------------|
|-11-1111-11-1111-9-99-9-99-9-97-7-77-777-777-777-666-6-|
|-8--8-8--7--7-7--7-77-7-66-6-66-6-66-666-555-555-444-4-|
|-------------------------------------------------------|

Legend:
| R : right guitar
| L : left guitar
| : palm mute
| b : bend
| / : slide up
| : slide down
| h : hammer-on
| p : pull-off
| ~ : vibrato
| + : harmonic
| x : mute note

To play the most songs, including A Vicious Reforming of Features by After the Burial by ukulele, the most important basic ukulele chords to learn are C chord, D chord, G chord, and Em chord.
These set you up to play a ton of songs, and each of them is easy to master.

If you are looking for Berzerker ukulele chords, you’ve visit to the right place.
You can play versatile instrument Berzerker using ukulele or guitar.
This song by After the Burial can also be played by that instruments.
=

Berzerker chords has rhythm and included in Rareform (2008) album.
You can also get another musical genres, including jazz ukulele chords, country music ukulele chords, pop ukulele chords, world music ukulele chords, and rock ukulele chords here.

Berzerker by After the Burial Ukulele Chords

BY: AFTER THE BURIAL

Transcribed by Joe Keller
jkguitar@comcast.net

This took A LOT OF TIME because
I tabbed both guitars 1 and 2.

Please Do Not Copy without Permission.

THANKS AND ENJOY!

Tuning

you know the deal..

h hammer on
p pull off
/ slides
harmonic
^ bend
s speed pick
~ vibr.

ect….

[ INTRO ]

____[GTR 1]_______________________________________________________


|------------------------------------------------------------|
|------------------------------------------------------------|
|------------------------------------------------------------|
|-17-15-14h15p14-14h15p14----14h15p14------------------------|
|-------------------------17----------17-15-14h15p14---------|
|----------------------------------------------------17-16~--|
|------------------------------------------------------------|
-----------------------------------------|
-----------------------------------------|
-----------------------------------------|
-----------------------------------------|
---15---15---14/17---17-17---17---19-15~-|
-0----0----0-------0-------0----0--------|
-----------------------------------------|
-15-13-12h13p12-12h13p12----12h13p12-----------------------|
-------------------------15----------15-13-12h13p12--------|
----------------------------------------------------14-13~-|
-----------------------------------------------------------|
-----------------------------------------------------------|
-----------------------------------------------------------|
-----------------------------------------------------------|
------------------------------------------|
------------------------------------------|
-14-14-----12--12--------17-17-----16--16-|
-10-10------9---9--------14-14-----12--12-|
-12-12-12--10--10--10-10-15-15-15--14--14-|
------------------------------------------|
------------------------------------------|

sweeps


------8h12p8---------8h12p8--------------------11h15p11----------11h15p11----------11h15p11----|
---10--------10---10--------10--------------13----------13----13----------13----13----------13-|
-9--------------9--------------9---------12----------------12----------------12----------------|
---------------------------------10p7/13-------------------------------------------------------|
-----------------------------------------------------------------------------------------------|
-----------------------------------------------------------------------------------------------|
-----------------------------------------------------------------------------------------------|
-------12h17p12----------12h17p12----------12-15-|
----13----------13----13----------13----13-------|
-14----------------14----------------14----------|
-------------------------------------------------|
-------------------------------------------------|
-------------------------------------------------|
-------------------------------------------------|

Play each of these notes really fast….


-17s-15s-13s-12s-13s-15s-13s-12s-----------------------------|
-------------------------------------------------------------|
-------------------------------------------------------------|
---------------------------------12s-10s-9s-7s-9s-10s-9s-7s--|
-------------------------------------------------------------|
-------------------------------------------------------------|
-------------------------------------------------------------|

___________________________________________________________________

____[GTR 2]_______________________________________________________


|------------------------------------------------------------|
|------------------------------------------------------------|
|------------------------------------------------------------|
|-14-12-10h12p10-10h12p10----10h12p10------------------------|
|-------------------------14----------14-12-11h12p11---------|
|----------------------------------------------------13-12~--|
|------------------------------------------------------------|
------------------------------------------|
------------------------------------------|
------------------------------------------|
------------------------------------------|
------------------------------------------|
-0-12-0-12-0-10/13-0-13-13-0-13-0-15-12~--|
------------------------------------------|
------------------------------------------------------------|
------------------------------------------------------------|
------------------------------------------------------------|
-17-15-14h15p14-14h15p14----14h15p14------------------------|
-------------------------17----------17-15-14h15p14---------|
----------------------------------------------------17-16~--|
------------------------------------------------------------|
-------------------------------------------------------------------------------|
-------------------------------------------------------------------------------|
-14-14-----12--12--------17-17-----16--16--------------------------------------|
-10-10------9---9--------14-14-----12--12--------------------------------------|
-12-12-12--10--10--10-10-15-15-15--14--14-12-12--------------------------------|
-------------------------------------------------------------------------------|
------------------------------------------------0-0-0-0---0-0-0--0-0-0---0-0-0-|
------8h12p8---------8h12p8---------8-10-|
---10--------10---10--------10---10------|
-9--------------9--------------9---------|
-----------------------------------------|
-----------------------------------------|
-----------------------------------------|
-----------------------------------------|
-12s-10s-8s-7s-8s-10s-8s-7s----------------------------|
-------------------------------------------------------|
----------------------------9s-7s------------7s--------|
----------------------------------10s-8s-10s----10s-8s-|
-------------------------------------------------------|
-------------------------------------------------------|
-------------------------------------------------------|

___________________________________________________________________

[ VERSE ]

_____[GTR 1]_______________________________________________________


-15-13-12h13p12-12h13p12----12h13p12-----------------------|
-------------------------15----------15-13-12h13p12--------|
----------------------------------------------------14-13-|
-----------------------------------------------------------|
-----------------------------------------------------------|
-----------------------------------------------------------|
-----------------------------------------------------------|
---------------------------------------------------------------------12-------------|
---------------------------------------------------------------12-15----15-13-12-13-|
------------------------------------------------------------------------------------|
------------------------------------------------------------------------------------|
--------------------------------------12--------------------------------------------|
-/12-0-10-0-8h10p8-0-7--0-000-14-15-0-----0-15-0-14h15p14-0-12----------------------|
------------------------------------------------------------------------------------|
--------------------------------------------------------------------------------------|
--------------------------------------------------------------------------------------|
--------------------------------------------------------------------------------------|
--------------------------------------------------------------------------------------|
---15---14h15p14---------15---14h15p14------------------------------------------------|
-0----0----------0-15--0----0----------0-12--0-11-11/1512-0-/15--15-0-14--0-12/1412-|
--------------------------------------------------------------------------------------|
------------------------------------------------------------------------------|
------------------------------------------------------------------------------|
------------------------------------------------------------------------------|
---------9----------------9--------------9------------------------------------|
---------7----------------7--------------7-----------7h10p76-6h9p63-3h6p32-|
-000-000---0-000-000-000---0-000-000-000---0-000-000--------------------------|
------------------------------------------------------------------------------|

___________________________________________________________________

_____[GTR 2]_______________________________________________________


-----------------------------------------------------------|
-----------------------------------------------------------|
-21-19-17h19p17-17h19p17----17h19p17-----------------------|
-------------------------21----------21-19-18h19p18--------|
----------------------------------------------------20-19-|
-----------------------------------------------------------|
-----------------------------------------------------------|
----------------------------------------------------------------------------------|
----------------------------------------------------------------12-13-12----------|
-------------------------------------------------------------12----------14-12-14-|
----------------------------------------------------------------------------------|
-10---9---7h9p7---7--------12h14---15----14---12h14p12---10----------------------|
-----0---0-------0----0-000-------0-----0----0----------0-------------------------|
----------------------------------------------------------------------------------|
-----------------------------------------------------------------------------------|
-----------------------------------------------------------------------------------|
-----------------------------------------------------------------------------------|
---14---12h14p12---------14---12h14p12---------------------------------------------|
-------------------14--------------------10----9-9/12/10---/14-14---12----12/1412-|
-0----0----------0-----0----0----------0-----0-----------0--------0-----0----------|
-----------------------------------------------------------------------------------|
-------------------------------------------------------------------------------------|
-------------------------------------------------------------------------------------|
-------------------------------------------------------------------------------------|
---------9----------------9----------------9-----------------------------------------|
---------10---------------10---------------10-----------10h14p109-9h13p97-7h10p76-|
-000-000----0-000-000-000----0-000-000-000----0-000-000------------------------------|
-------------------------------------------------------------------------------------|

___________________________________________________________________

[ TRANSITION BREAKDOWN ]
___________________________________________________________________
GTR1


|----------------------------|-----------------------------|
|----------------------------|-----------------------------|
|----------------------------|-----------------------------|
|----------------------------|-----------------------------|
|----------------------------|-----------------------------|
|-----000-----000--------000-|-000-000-000-000----000-000--|
|----------------------------|-----------------------------|

GTR2


|----------------------------|-----------------------------|
|----------------------------|-----------------------------|
|----------------------------|-----------------------------|
|----------------------------|-----------------------------|
|----------------------------|-----------------------------|
|-000-----000--------000-----|-000-000-000-000----000-000--|
|----------------------------|-----------------------------|

BOTH GTRs


|-------------------------------------------------------------------|
|-------------------------------------------------------------------|
|-------------------------------------------------------------------|
|-------------------------------------------------------------------|
|-------------------------------------------------------------------|
|-000-000-000-000---000-000---000-000-000-000-000---000-000-000-000-|
|-------------------------------------------------------------------|
--------------------------------------------------------------|
--------------------------------------------------------------|
--------------------------------------------------------------|
--------------------------------------------------------------|
--------------------------------------------------------------|
-000-000-000-000-000-000-000---000-000-000-000-000---000-000--|
--------------------------------------------------------------|

GTR1


--------------------------|
--------------------------|
--------------------------|
-/14-------/13-----/9-----|
--------------------------|
-/12-------/11-----/7-----|
--------------------------|

GTR2


--------------------------|
--------------------------|
--------------------------|
-/17-------/16-----/13----|
--------------------------|
-/15-------/14-----/11----|
--------------------------|

[BACK TO VERSE]
___________________________________________________________________

_____[GTR 1]_______________________________________________________


-----24-|----------------------------------------------------------|
--------|----------------------------------------------------------|
--------|----------------------------------------------------------|
--------|----------------------------------------------------------|
--------|----------------------------12-11-12-0-8-7-8-0-12-11-12-0-|
-12/----|-5-4-5-0-8-7-8-0-12-11-12-0-------------------------------|
--------|----------------------------------------------------------|
----------------------------------------------------------------------|
----------------------------------------------------------------------|
----------------------------------------------------------------------|
-12-11-12-0-15-14-15-12/14~--9-/12-12/15-15/18-1815-1512-12/14-14~-|
----------------------------------------------------------------------|
----------------------------------------------------------------------|
----------------------------------------------------------------------|
-------------------------------------------------------------------|
------------------------------------------------------17-16-17-----|
-------------14/16----14-16-17-16-14-17~--17-16-17-14----------14--|
-14p12-14----------14----------------------------------------------|
----------12-------------------------------------------------------|
-------------------------------------------------------------------|
-------------------------------------------------------------------|
-------------------------------------------------------------------|
-18-17-15----------------------------------------------------------|
----------17-16-14-------------------------------------------------|
-------------------15-17-15-14-------------------------------------|
-------------------------------15-17-15-14-12-14-11-12-------------|
-------------------------------------------------------13-10-8-7-8-|
-------------------------------------------------------------------|
----------------------------|
----------------------------|
----------------------------|
-------6-7-9-6-7---6--------|
-5-7-8-----------8---7-8-5--|
----------------------------|
----------------------------|

_____[GTR 2]_______________________________________________________


--------|-------------------------------------------------------|
-----24-|-------------------------------------------------------|
--------|-------------------------------------------------------|
--------|-------------------------------------------------------|
--------|-3-2-3-0-7-6-7-0-12-11-12-0-15-14-15-0-5-4-5-0-8-7-8-0-|
-10/----|-------------------------------------------------------|
--------|-------------------------------------------------------|
--------------------------------------------------------------------|
--------------------------------------------------------------------|
--------------------------------------------------------------------|
--------------------------------------------------------------------|
-12-11-12-0-17-16-17-12/14~-11/14-14/17-17/20-2017-1714-14/15-15~-|
--------------------------------------------------------------------|
--------------------------------------------------------------------|
------------------------------------------------------------------|
------------------------------------------------------------------|
------------------------------------------14-13-14----17-16-17----|
-------------14h15----15/17p15p14----15~-----------15----------15-|
-15-14-15-12-------12-------------17------------------------------|
------------------------------------------------------------------|
------------------------------------------------------------------|
---------------------------------------------------------|
---------------------------------------------------------|
-19-17-16------------------------------------------------|
----------19-17-15-14h15p1412---------------------------|
-------------------------------14h15p14-12-8h10p8p7------|
----------------------------------------------------107-|
---------------------------------------------------------|
----------------------------------|-------|
----------------------------------|-------|
----------------------------------|--6^--|
-------------2-3-5-2-3---2--------|-------|
-------2-3-5-----------5---3-5-2--|-------|
-5-4-5----------------------------|-------|
----------------------------------|-------|

___________________________________________________________________

GTR1


|------------------------------------------------|
|------------------------------------------------|
|---------------------------------------------6^-|
|------------------------------------------------|
|---------------------4^-------------------------|
|------------------------------------------------|
|-3-2-1-0---2^-1-0--0----3-2-1-0--0-2^-1-0--0----|
------------------------------------------------------|-------|
------------------------------------------------------|-------|
---------------------------------------------------6^-|-------|
------------------------------------------------------|-------|
----------------------4^----------------------4^------|----0--|
------------------------------------------------------|--0-0--|
-3-2-1-0--0-2^-1-0--0----3-2-1-0--0-2^-1-0--0----0----|--0-0--|

GTR2


|------------------------------------------------|
|------------------------------------------------|
|------------------------------------------------|
|---------------------------------------------7^-|
|------------------------------------------------|
|---------------------5^-------------------------|
|-3-2-1-0---2^-1-0--0----3-2-1-0--0-2^-1-0--0----|
------------------------------------------------------|-------|
------------------------------------------------------|-------|
------------------------------------------------------|-------|
---------------------------------------------------7^-|-------|
------------------------------------------------------|----0--|
----------------------5^----------------------5^------|--0-0--|
-3-2-1-0--0-2^-1-0--0----3-2-1-0--0-2^-1-0--0----0----|--0-0--|

___________________________________________________________________

[ SWEEPS ]


|------------9h12p9---------9h12p9--------------------9h12p9----|
|---------10--------10---10--------10--------------10--------10-|
|-------9--------------9--------------9----------9--------------|
|----11---------------------------------11----11----------------|
|-12---------------------------------------12-------------------|
|---------------------------------------------------------------|
|---------------------------------------------------------------|
------9h12h15p12p9------------h9h12h15p12p9--------------------9h12h17-|
---10--------------h10----h10---------------10--------------10---------|
-9---------------------h9----------------------9----------9------------|
-------------------------------------------------11----11--------------|
----------------------------------------------------12-----------------|
-----------------------------------------------------------------------|
-----------------------------------------------------------------------|

___________________________________________________________________

GTR2 Plays line first, Then Guitar 1.


|----------------------------------------------|
|----------------------------------------------|
|----------------------------------------------|
|----------------------------------------------|
|----------------------------------------------|
|----------------------------------------------|
|-2p0-0-2p0-0--2p0-0-2p0-0--2p0-0-2p0-0-2p0-0--|
|-----------------------------------------------------------------------------------------------|
|-----------------------------------------------------------------------------------------------|
|-----------------------------------------------------------------------------------------------|
|-----------------------------------------------------------------------------------------------|
|-----------------------------------------------------------------------------------------------|
|-----------------------------------------------------------------------------------------------|
|-2p0-2p0-0-2p0-0--2p0-0-2p0-0--2p0-0-2p0-0-2p0-0--2p0-0-2p0-0--2p0-0-2p0-0--2p0-0-2p0-0-2p0-0--|
|------------------------------------------------------------------------------------------|
|------------------------------------------------------------------------------------------|
|------------------------------------------------------------------------------------------|
|------------------------------------------------------------------------------------------|
|------------------------------------------------------------------------------------------|
|-00000-00000---00000-00000---00000-00000-00000---00000-00000---00000-00000---00000-00000--|
|-00000-00000---00000-00000---00000-00000-00000---00000-00000---00000-00000---00000-00000--|
|------------------------------------------------------------------------------|
|------------------------------------------------------------------------------|
|------------------------------------------------------------------------------|
|-------------1-1-1--1-1-1---1-1-1--1-1-1---1-1-1--1-1-1--1-1-1---1-1-1--1-1-1-|
|-6-5-4-3-2-1-0-0-0--0-0-0---0-0-0--0-0-0---0-0-0--0-0-0--0-0-0---0-0-0--0-0-0-|
|-4-5-4-3-2-1-0-0-0--0-0-0---0-0-0--0-0-0---0-0-0--0-0-0--0-0-0---0-0-0--0-0-0-|
|---5-4-3-2-1-0-0-0--0-0-0---0-0-0--0-0-0---0-0-0--0-0-0--0-0-0---0-0-0--0-0-0-|
------------------------------------------------------------------|
------------------------------------------------------------------|
------------------------------------------------------------------|
-1-1-1--1-1-1---1-1-1--1-1-1----------1-1-1--1-1-1---1-1-1--1-1-1-|
-0-0-0--0-0-0---0-0-0--0-0-0--0-------0-0-0--0-0-0---0-0-0--0-0-0-|
-0-0-0--0-0-0---0-0-0--0-0-0--0-------0-0-0--0-0-0---0-0-0--0-0-0-|
-0-0-0--0-0-0---0-0-0--0-0-0--0-1///--0-0-0--0-0-0---0-0-0--0-0-0-|
-------------------------------------------------------------------------------|
-------------------------------------------------------------------------------|
-------------------------------------------------------------------------------|
-1-1-1--1-1-1--1-1-1---1-1-1--1-1-1---1-1-1--1-1-1---1-1-1--1-1-1--1-1-1-------|
-0-0-0--0-0-0--0-0-0---0-0-0--0-0-0---0-0-0--0-0-0---0-0-0--0-0-0--0-0-0---0-0-|
-0-0-0--0-0-0--0-0-0---0-0-0--0-0-0---0-0-0--0-0-0---0-0-0--0-0-0--0-0-0---0-0-|
-0-0-0--0-0-0--0-0-0---0-0-0--0-0-0---0-0-0--0-0-0---0-0-0--0-0-0--0-0-0---0-0-|

GTR1


-12-10-8h10p8-8h10p8----12--10-8h10p8-8h10p8----12--10-8h10p8-8h10p8----8h10p8--------------------|
---------------------10----------------------10----------------------12--------12-10-9h10p9-------|
--------------------------------------------------------------------------------------------10-9--|
--------------------------------------------------------------------------------------------------|
--------------------------------------------------------------------------------------------------|
--------------------------------------------------------------------------------------------------|
--------------------------------------------------------------------------------------------------|

GTR2


-15-13-12h13p12-12h13p12----15--13-12h13p12-12h13p12----15--13-12h13p12-12h13p12----12h13p12--|
-------------------------13--------------------------13--------------------------15-----------|
----------------------------------------------------------------------------------------------|
----------------------------------------------------------------------------------------------|
----------------------------------------------------------------------------------------------|
----------------------------------------------------------------------------------------------|
----------------------------------------------------------------------------------------------|
----------------------|
-15-13-12h13p12-------|
----------------14-13-|
----------------------| [ BACK TO VERSE ]
----------------------|
----------------------|
----------------------|

___________________________________________________________________

[ OUTRO ]

GTR1


---------------------------------------------------------------|----24--|
---------------------------------------------------------------|--------|
--------------------12s----------------------------------------|--------|
-----------------9s-----9s----------14s-----14s-13s----13s-----|--------|
-------------10s-----------10s-/10s-----10s---------9s-----9s--|-9/-----|
-000-000-000---------------------------------------------------|--------|
---------------------------------------------------------------|--------|

GTR2


-----------------------------------------------------------------|--------|
-----------------------------------------------------------------|-----24-|
-----------------------------------------------------------------|--------|
-----------------------------------------------------------------|--------|
---------------------14s-------------15s-----15s-14s-----14s-----|--------|
-000-000-000-12s-15s-----15s-12s-12s-----12s---------11s-----11s-|-11/----|
-----------------------------------------------------------------|--------|

[- THE END -]

To play the this songs, including Berzerker by After the Burial by ukulele, the most crucial basic ukulele chords to learn are C chord, D chord, G chord, and Em chord.
These set you up to play a ton of songs, and each of them is easy to learn.