If you are looking for Balaclava ukulele chords, you’ve come to the best place.
You can play versatile instrument Balaclava using ukulele or guitar.
This song by Arctic Monkeys can also be played by that instruments.
=

Balaclava chords has rhythm and included in Favourite Worst Nightmare (2007) album.
You can also find another musical genres, including jazz ukulele chords, country music ukulele chords, pop ukulele chords, world music ukulele chords, and rock ukulele chords here.

Balaclava by Arctic Monkeys Ukulele Chords

Running off over next doors garden
Before the hour is done
It’s more a question of feeling
Than it is a question of fun
The confidence is the balaclava
I’m sure you’ll baffle ’em good
Will the ending reek of salty cheeks
And runny makeup alone

Or will blood run down the face
Of a boy bewildered and scorned
And you’ll find yourself in a skirmish
And you wish you’d never been born
And you tie yourself to the tracks
And there isn’t no going back
And it’s wrong wrong wrong
But we’ll do it anyway cause we love a bit of trouble

Are you pulling her from a burning building
Or throwing her to the sharks
Can only hope that the ending is as pleasurable as the start
The confidence is the balaclava, i’m sure you baffle ’em straight
And its wrong wrong wrong, she can hardly wait

That’s right, he won’t let her out his sight
Now the shaggers perform
And the daggers are drawn
Who’s the crooks in this crime?

That’s right, he won’t let her out his sight
Now the shaggers perform
And the daggers are drawn
Who’s the crooks in this….
Crime!

That’s right, he wont let her out his sight
That’s right, he wont let her out his sight
That’s right, he wont let her out his sight

You’ll be able to post any day of the most
For the sights of all time

You knew that it’d be trouble right before the very first kiss
Quiet and assuming but you heard that they were the naughtiest
She pleaded with you to take it off
But you resisted and fought
Sorry sweetheart, I’d much rather keep on the balaclava.

Probably not even close but someone has to do it

To play the most songs, including Balaclava by Arctic Monkeys by ukulele, the most crucial basic ukulele chords to learn are C chord, D chord, G chord, and Em chord.
These set you up to play a a lot of songs, and each of them is easy to master.

If you are looking for All My Own Stunts ukulele chords, you’ve come to the right site.
You can play versatile instrument All My Own Stunts using ukulele or guitar.
This song by Arctic Monkeys can also be played by that instruments.
=

All My Own Stunts chords has rhythm and included in Suck It and See (2011) album.
You can also get other musical style, including jazz ukulele chords, country music ukulele chords, pop ukulele chords, world music ukulele chords, and rock ukulele chords here.

All My Own Stunts by Arctic Monkeys Ukulele Chords



[Verse 1]
Caricatures of your wrecking ball gown
In my mind all the time
I wanna be in that damsel patterned alley
Where you go for a smoke
And sorrow slow dances, the phones are lighting up
Taking no chances, close but never close enough


Been watching cowboy films on gloomy afternoons
Tinting the solitude
Put on your dancing shoes and show me what to do
I know you’ve got the moves

[Verse 2]
All my own stunts, high noon has changed its tune
Linking arms, sinking hearts
And sorrow slow dances around the edges of her eyes
Taking no chances, the last one out to win a prize


Been watching cowboy films on gloomy afternoons
Tinting the solitude
Put on your dancing shoes and show me what to do
I know you’ve got the moves

[Instrumental break]



Woah-oh-oh x3

N.C.
I’m from High Green
N.C.
I’m from High Green

To play the this songs, including All My Own Stunts by Arctic Monkeys by ukulele, the most crucial basic ukulele chords to learn are C chord, D chord, G chord, and Em chord.
These set you up to play a ton of songs, and each of them is easy to master.

If you are looking for Brick by Brick ukulele chords, you already come to the best site.
You can play versatile instrument Brick by Brick using ukulele or guitar.
This song by Arctic Monkeys can also be played by that instruments.
=

Brick by Brick chords has rhythm and included in Suck It and See (2011) album.
You can also find another musical style, including jazz ukulele chords, country music ukulele chords, pop ukulele chords, world music ukulele chords, and rock ukulele chords here.

Brick by Brick by Arctic Monkeys Ukulele Chords

Email: 123nebojsa123@gmail.com

Tuning: Standard (EADGBe)

Intro:

gt.1 and gt.2


e ------|-----------------|
b ------|-----------------|
g --1-4-|-4-4-4-1-1-1-----|
d --2-5-|-5-5-5-2-2-2-----| repeat
a --2-5-|-5-5-5-2-2-2-----|
E --0-3-|-3-3-3-0-0-0-x-x-|

Chorus:

gt.1


e ------------------------------------|
b -------10-10-------10-10------------|
g -12-12-------12-12-------12-9-9-9-9-|
d ------------------------------------| 4x
a ------------------------------------|
E ------------------------------------|

gt.2


e ------------------------------------|
b ------------------------------------|
g --6-6---4-4---1-1-1-1-1-1-----------|
d --7-7---5-5---2-2-2-2-2-2-----------| 4x
a --7-7---5-5---2-2-2-2-2-2-----------|
E --5-5-x-3-3-x-0-0-0-0-0-0-----------|

gt.1


e -------------------------------------------------------------|------|
b --10---------------10-------------10------12-11-10-9---------|------|
g -----12-9-9-9-9-------12-9-9-9-9---------------------12-11-10|----4-|
d -------------------------------------------------------------|--2-5-|
a -------------------------------------------------------------|--2-5-|
E -------------------------------------------------------------|--0-3-|

gt.2


e --------------------------------------|
b --------------------------------------|
g --6-3-1--1-1-1-----6-4-1--1-1-1----6--|
d --7-5-2--2-2-2-----7-5-2--2-2-2----7--|
a --7-5-2--2-2-2-----7-5-2--2-2-2----7--|
E --5-3-0--0-0-0-----5-3-0--0-0-0----5--|

Break:

gt.1 (gt.2 plays Intro chords)


e --------------------------------------------------------------------------|
b --12--------------------------15b17--15b17-12-----------------------------|
g --14b15-14b16---14b16p12---12---------------------14p12h14--14b16p12------|
d ------------------------14----------------------14-------------------14-12|
a --------------------------------------------------------------------------|
E --------------------------------------------------------------------------|
e -------------------|
b ---------12--------|
g -----12-----12-----|
d --14-----------14--|
a -------------------|
E -------------------|

gt.2 plays Intro chords

Chorus 2.

Break 2:

gt.1 (gt.2 plays Intro chords)


e ---------------------|-----------------------|-----------------|
b ---------------------|-15b17r15--12----------|-----------------|
g -9-9~----------------|--------------13-12----|-----7b9r7-------|
d ------7~-------------|-----------------------|-----------------|
a ---------5s7s5s7s5s7-|-----------------------|-----------5s7s5~|
E ---------------------|-----------------------|-----------------|

Chorus 3. (This is played till the end)

To play the this songs, including Brick by Brick by Arctic Monkeys by ukulele, the most important basic ukulele chords to learn are C chord, D chord, G chord, and Em chord.
These set you up to play a many of songs, and each of them is easy to master.

If you are searching for This House Is a Circus ukulele chords, you already come to the right site.
You can play versatile instrument This House Is a Circus using ukulele or guitar.
This song by Arctic Monkeys can also be played by that instruments.
=

This House Is a Circus chords has rhythm and included in Favourite Worst Nightmare (2007) album.
You can also find another musical genres, including jazz ukulele chords, country music ukulele chords, pop ukulele chords, world music ukulele chords, and rock ukulele chords here.

This House Is a Circus by Arctic Monkeys Ukulele Chords



e|-x-2-3-----x-3-2----------|
B|-x-3-4-----x-4-3----------|
G|-x-4-5-----x-5-4----------|
D|--------------------------|
A|--------------------------|
E|--------------------------|

Alex does nothing at first

0:37
Alex starts playing the intro riff


e|-x-7-8-----x-8-7----------|
B|-x-7-8-----x-8-7----------|
G|-x-7-8-----x-8-7----------|
D|--------------------------|
A|--------------------------|
E|--------------------------|

0:49


e|--------------------------|
B|--------------------------|
G|--------------------------|
D|--------------------------|
A|--------9-----------------|
E|-7---5-----8--------------|

Alex doesn’t play in the first chorus

1:14
“In dead man’s eyes”
[Both guitars]


e|----------------------------------|
B|----------------------------------|
G|----------------------------------|
D|----------------------------------|
A|---------------5---------------5--|
E|-7--7--7-7-5-7---8--8--8-8-5-8----|

1:26
Alex keeps playing the part above


e|-7-10---7-10---7-10---7-10--|
B|----------------------------|
G|----------------------------|
D|----------------------------|
A|----------------------------|
E|----------------------------|
e|-7-10-8-11-7-10-8-11-7-10-8-11-7-10-8-11-|
B|-----------------------------------------|
G|-----------------------------------------|
D|-----------------------------------------|
A|-----------------------------------------|
E|-----------------------------------------|

1:38
[Both guitars]


e|--------------------------|
B|--------------------------|
G|--------------------------|
D|-----------4--4-----------|
A|-7--7-5--5------5-4-------|
E|--------------------------|
e|----------------------------------|
B|----------------------------------|
G|----------------------------------|
D|----------------------------------|
A|---------------5---------------5--|
E|-7--7--7-7-5-7---7--7--7-7-5-7----|

These parts repeat for a while

2:00
intro riff is played by jamie until 2:37

2:12


e|--------------------------|
B|--------------------------|
G|--------------------------|
D|--------------------------|
A|--------9-----------------|
E|-7---5-----8--------------|

2:25


e|----------------------------------|
B|----------------------------------|
G|----------------------------------|
D|----------------------------------|
A|---------------5---------------5--|
E|-7--7--7-7-5-7---8--8--8-8-5-8----|

2:37
Alex keeps playing his riff above


e|-------------------------------------|
B|-------------------------------------|
G|-------------------------------------|
D|-------------------------------------|
A|-----------------------------5-5-5-5-|
E|-7-7-7-7-7-7-7-7-5-5-8-8-8-8---------|

2:50


e|--------------------------|
B|--------------------------|
G|--------------------------|
D|-9-9-9-9-9-9-9-9-9-9-9-9--|
A|-9-9-9-9-9-9-9-9-9-9-9-9--|
E|-7-7-7-7-7-7-7-7-7-7-7-7--|

plays that chord for the rest of the song and alex plays something like this:
e|-7777777777777777888888881010101010101010-|
B|-7777777777777777888888881010101010101010-|
G|-7777777777777777888888881010101010101010-|


D|------------------------------------------|(x3)
A|------------------------------------------|
E|------------------------------------------|

e|-1414141414141414121212121212121210101010-|
B|-1414141414141414121212121212121210101010-|
G|-1414141414141414121212121212121210101010-|


D|------------------------------------------|
A|------------------------------------------|
E|------------------------------------------|
e|-10101010888888887~-------|
B|-10101010888888887~-------|
G|-10101010888888887~-------|
D|--------------------------|
A|--------------------------|
E|--------------------------|

btw those are 10s 14s and 12s

To play the this songs, including This House Is a Circus by Arctic Monkeys by ukulele, the most important basic ukulele chords to learn are C chord, D chord, G chord, and Em chord.
These set you up to play a ton of songs, and each of them is easy to master.

If you are looking for Snap Out of It ukulele chords, you already visit to the best place.
You can play versatile instrument Snap Out of It using ukulele or guitar.
This song by Arctic Monkeys can also be played by that instruments.
=

Snap Out of It chords has rhythm and included in AM (2013) album.
You can also find other musical genres, including jazz ukulele chords, country music ukulele chords, pop ukulele chords, world music ukulele chords, and rock ukulele chords here.

Snap Out of It by Arctic Monkeys Ukulele Chords


Tuning: Standard E A D G B E

INTRO


e|--1----------------------------------------------------------|
B|----1--------------------------------------------------------|
G|------1------------------------------------------------------|
D|--------3--------3-3-3--2-2--3-3--2-2--3-3-3--2-2--3-3--2-2--|
A|----------3------3-3-3--3-3--3-3--3-3--3-3-3--3-3--3-3--3-3--|
E|------------1------------------------------------------------|

? ? ? ?


-------------------------------------------------------------------------------

VERSE


e|----------------------------------------------|
B|----------------------------------------------|
G|----------------------------------------------| X2
D|--3-3-3--2-2--3-3--2-2--3-3-3--2-2--3-3--2-2--|
A|--3-3-3--3-3--3-3--3-3--3-3-3--3-3--3-3--3-3--|
E|----------------------------------------------|

? ? ?


e|----------------------------------------------|
B|----------------------------------------------|
G|-3-3-3--3-3--3-3--3-3--3-3-3--3-3--3-3--3-3---|
D|-3-3-3--2-2--3-3--2-2--3-3-3--2-2--3-3--2-2---|
A|-1-1-1--1-1--1-1--1-1--1-1-1--1-1--1-1--1-1---|
E|----------------------------------------------|

? ? ?


e|-----------------------------------------------|
B|-----------------------------------------------|
G|-3-3-3--3-3--3-3--3-3--3-3-3--3-3--------------|
D|-3-3-3--2-2--3-3--2-2--3-3-3--2-2--2-2-2--2-2--|
A|-1-1-1--1-1--1-1--1-1--1-1-1--1-1--3-3-3--3-3--|
E|-----------------------------------------------|

? ? ? ?


-------------------------------------------------------------------------------

CHORUS


e|-------------------------------------------------------|
B|-------------------------------------------------------|
G|----6-6--6-6--6-6--6-6--6-6----------------------------| X3
D|--0-6-6--6-6--6-6--6-6--6-6--0-3-3--3-3--0-6-6--6-6-6--|
A|--0-4-4--4-4--4-4--4-4--4-4--0-3-3--3-3--0-6-6--6-6-6--|
E|--0--------------------------0-1-1--1-1--0-4-4--4-4-4--|

? ? ? ? ? ? ?


e|-----------------------------------------------------------|
B|-----------------------------------------------------------|
G|----6-6--6-6--6-6--6-6--6----------------------------------|
D|--0-6-6--6-6--6-6--6-6--6--0-10-10--0-8-8--0-6-6--0-5-5-5--|
A|--0-4-4--4-4--4-4--4-4--4--0-10-10--0-8-8--0-6-6--0-5-5-5--|
E|--0------------------------0-8--8---0-6-6--0-4-4--0-3-3-3--|

? ? ?


-------------------------------------------------------------------------------

BRIDGE


e|----------------------------------------------|
B|----------------------------------------------|
G|----------------------------------------------|
D|--3-3-------------------3-3-3--2-2--3-3--2-2--|
A|--3-3-------------------3-3-3--3-3--3-3--3-3--|
E|----------------------------------------------|

? ? ?


e|----------------------------------------------|
B|----------------------------------------------|
G|----------------------------------------------| X2
D|--3-3-3--2-2--3-3--2-2--3-3-3--2-2--3-3--2-2--|
A|--3-3-3--3-3--3-3--3-3--3-3-3--3-3--3-3--3-3--|
E|----------------------------------------------|

? ? ?


e|------------------------------------------------|
B|------------------------------------------------|
G|------------------------------------------------|
D|--3-3-3--2-2--3-3--2-2--3-3-3--2-2--2-2-2--2-2--|
A|--3-3-3--3-3--3-3--3-3--3-3-3--3-3--3-3-3--3-3--|
E|------------------------------------------------|

? ? ? ?

To play the this songs, including Snap Out of It by Arctic Monkeys by ukulele, the most crucial basic ukulele chords to learn are C chord, D chord, G chord, and Em chord.
These set you up to play a a lot of songs, and each of them is easy to master.

If you are looking for All My Own Stunts ukulele chords, you already visit to the right site.
You can play versatile instrument All My Own Stunts using ukulele or guitar.
This song by Arctic Monkeys can also be played by that instruments.
=

All My Own Stunts chords has rhythm and included in Suck It and See (2011) album.
You can also get other musical genres, including jazz ukulele chords, country music ukulele chords, pop ukulele chords, world music ukulele chords, and rock ukulele chords here.

All My Own Stunts by Arctic Monkeys Ukulele Chords




[Verse 1]
Caricatures of your wrecking ball gown
In my mind all the time
I wanna be in that damsel patterned alley
Where you go for a smoke
And sorrow slow dances, the phones are lighting up
Taking no chances, close but never close enough


Been watching cowboy films on gloomy afternoons
Tinting the solitude
Put on your dancing shoes and show me what to do
I know you’ve got the moves

[Verse 2]
All my own stunts, high noon has changed its tune
Linking arms, sinking hearts
And sorrow slow dances around the edges of her eyes
Taking no chances, the last one out to win a prize


Been watching cowboy films on gloomy afternoons
Tinting the solitude
Put on your dancing shoes and show me what to do
I know you’ve got the moves

[Instrumental break]



Woah-oh-oh x3

N.C.
I’m from High Green
N.C.
I’m from High Green

To play the this songs, including All My Own Stunts by Arctic Monkeys by ukulele, the most important basic ukulele chords to learn are C chord, D chord, G chord, and Em chord.
These set you up to play a many of songs, and each of them is easy to master.

If you are searching for Knee socks ukulele chords, you already come to the right place.
You can play versatile instrument Knee socks using ukulele or guitar.
This song by Arctic Monkeys can also be played by that instruments.
=

Knee socks chords has rhythm and included in album.
You can also get another musical style, including jazz ukulele chords, country music ukulele chords, pop ukulele chords, world music ukulele chords, and rock ukulele chords here.

Knee socks by Arctic Monkeys Ukulele Chords

Verse
You got the lights on in the afternoon
And the nights are drawn out long
And you’re kissing to cut through the gloom
With a cough drop coloured tongue
You were sitting in the corner with the coats all piled high
And I thought you might be mine
In a small world on an exceptionally rainy Tuesday night
In the right place and time
 
 
Chorus
When the zeros line up on the twenty four hour clock
When you know who’s calling even though the number is blocked
When you walked around your house wearing my sky blue Lacoste
And your knee socks
 
 
Verse
 
Well, you cured my January blues,
yeah, you made it all alright
I got a feeling I might’ve lit the very fuse
that you were trying not to light
You were a stranger in my phonebook I was acting like I knew
Cause I had nothing to lose
When the winter’s in full swing and your dreams just aren’t coming true
Ain’t it funny what you’ll do?
 
 
Chorus
When the zeros line up on the twenty four hour clock
When you know who’s calling even though the number is blocked
When you walked around your house wearing my sky blue Lacoste
And your knee socks
 
Bridge
In late afternoon, the ghost in your room
That you always thought didn’t approve of you knocking boots
Never stopped you letting me get hold of the sweet spot
By the scruff of your knee socks
 
You and me could’ve been a team
Each had a half of a king-and-queen seat
Like the beginning of Mean Streets you could Be My Baby
 
(The zeros lined up but the number’s blocked)
(When you’ve come undone)
 
 
Chorus
When the zeros line up on the twenty four hour clock
When you know who’s calling even though the number is blocked
When you walked around your house wearing my sky blue Lacoste
And your knee socks
 
When the zeros line up on the twenty four hour clock
When you know who’s calling even though the number is blocked
When you walked around your house wearing my sky blue Lacoste
And your knee socks

To play the this songs, including Knee socks by Arctic Monkeys by ukulele, the most important basic ukulele chords to learn are C chord, D chord, G chord, and Em chord.
These set you up to play a many of songs, and each of them is easy to learn.

If you are looking for Knee Socks ukulele chords, you already visit to the right site.
You can play versatile instrument Knee Socks using ukulele or guitar.
This song by Arctic Monkeys can also be played by that instruments.
=

Knee Socks chords has rhythm and included in AM (2013) album.
You can also find another musical style, including jazz ukulele chords, country music ukulele chords, pop ukulele chords, world music ukulele chords, and rock ukulele chords here.

Knee Socks by Arctic Monkeys Ukulele Chords


-------------------------------------------------------------------------------

Knee Socks – Arctic Monkeys


-------------------------------------------------------------------------------

Tabbed by: Challenger440

Tuning: Standard (EADGBe)

This is not my work.
It is Tom Hill’s tab (Ver2) along with Chords Ver1 (anonymous).
I simply added the chorus/bridge parts to the tab and specified
how to play the chords.

This is an excellent song and I hope you enjoy.

Intro/Main Riff


e|---------------------------------------------------------------------------|
B|----------------------12-----------------------12--------------------------|
G|----------12--12/14----------------12--12/14-------------------------------|
D|--12/14---------------------12/14------------------------------------------|
A|---------------------------------------------------------------------------|
E|---------------------------------------------------------------------------|
e|---------------------------------------------------------------------------|
B|-------------------12------------------------------------------------------|
G|----------12-----------------------12--14--12------------------------------|
D|--12/14-------12-----------12/14-------------------------------------------|
A|---------------------------------------------------------------------------|
E|---------------------------------------------------------------------------|
e|---------------------------------------------------------------------------|
B|-------------------12-----------------------12-----------------------------|
G|----------12-----------------------12--------------------------------------|
D|--12/14-------10-----------12/14-------10----------------------------------|
A|---------------------------------------------------------------------------|
E|---------------------------------------------------------------------------|
e|---------------------------------------------------------------------------|
B|---------------------------------------------------------------------------|
G|----------12--------------11--12--11---------------------------------------|
D|--12/14-------9--12--14----------------------------------------------------|
A|---------------------------------------------------------------------------|
E|---------------------------------------------------------------------------|

After Second time, end on

e|–12~~–|
B|–12~~–|
G|–12~~–|
D|–14~~–|
A|–14~~–|
E|–12~~–|

Verse Chords:


e|---12----5----8----2----|
B|---12----7----8----4----|
G|---12----7----9----4----|
D|---14----7----10---4----|
A|---14----5----10---2----|
E|---12---------8---------|

First, just the Em is played after each line,
then they are all played in the above order.

For each chord, just strum once and then add
a little vibrato, preferably with a whammy bar.

You got the lights on in the afternoon
And the nights are drawn out long
And you’re kissing to cut through the gloom
With a cough drop coloured tongue
You were sitting in the corner with the coats all piled high
And I thought you might be mine

In a small world on an exceptionally rainy Tuesday night
In the right place and time

Chorus:

Main Riff

Verse 2:

Well you cured my January blues,
yeah you made it all alright
I got a feeling I might’ve lit the very fuse
that you were trying not to light
You were a stranger in my phonebook I was acting like I knew
Cause I had nothing to lose
When the Winter’s in full swing and your dreams just aren’t coming true
Ain’t it funny what you’ll do?

Bridge: (this part played four times, with Joshua Homme’s background vocals
(in parenthesis) starting on the third time and continuing into the Chorus.
Always just the Em as the line repeats.)

You and me could’ve been a team

Each had a half of a king-and-queen seat

Like the beginning of Mean Streets you could Be My Baby

(The zeros lined up but the number’s blocked)
(When you’ve come undone)

Chorus/Outro:

Main Riff

(listen to know when to stop)

To play the most songs, including Knee Socks by Arctic Monkeys by ukulele, the most important basic ukulele chords to learn are C chord, D chord, G chord, and Em chord.
These set you up to play a a lot of songs, and each of them is easy to learn.

If you are searching for Old Yellow Bricks ukulele chords, you have come to the best site.
You can play versatile instrument Old Yellow Bricks using ukulele or guitar.
This song by Arctic Monkeys can also be played by that instruments.
=

Old Yellow Bricks chords has rhythm and included in Favourite Worst Nightmare (2007) album.
You can also find another musical style, including jazz ukulele chords, country music ukulele chords, pop ukulele chords, world music ukulele chords, and rock ukulele chords here.

Old Yellow Bricks by Arctic Monkeys Ukulele Chords

Old Yellow Bricks its a really easy and fun song to play and this is the accustic
version of it 🙂 so enjoy guys 🙂
intro : Am,Em,F,Dm
verse:Am,Em,F,Dm
chorus:F,Em

Old yellow bricks,
Love’s a risk,
Quite the little Escapoligist
Looked so miffed,
When you wished,
For a thousand places better than this,

You are the fugitive,
But you don’t know what you’re running from,
You cant kid us,
And you couldn’t trick anyone,
Houdini, love you don’t know what you’re running away from,

Who wants to sleep in the city that never wakes up?
Blinded by nostalgia,
Who wants to sleep in the city that never wakes up?

(same chords from now on )
She was enraged by the way,
That the emperor put traps in the cage,
And the days she being dull,
Lead to nights reading beer bottles,

You’re such a fugitive,
But you don’t know what you’re running from,
You cant kid us,

And you couldn’t trick anyone,
Houdini, love you don’t know what you’re running away from,

Who wants to sleep in the city that never wakes up?
Blinded by nostalgia,
Who wants to sleep in a city that never wakes up?

You’re at a loss,
Just because,
It wasn’t all that you thought it was,

You are a fugitive but you don’t know what you’re running away from,

She said I want to sleep in the city that never wakes up,
And revel in nostalgia,
I know I said he wants to sleep in the city that never wakes up but,
Dorothy was right though

outro:Am,Em,F,Dm

To play the most songs, including Old Yellow Bricks by Arctic Monkeys by ukulele, the most important basic ukulele chords to learn are C chord, D chord, G chord, and Em chord.
These set you up to play a many of songs, and each of them is easy to learn.

If you are searching for Pretty Visitors ukulele chords, you’ve come to the right site.
You can play versatile instrument Pretty Visitors using ukulele or guitar.
This song by Arctic Monkeys can also be played by that instruments.
=

Pretty Visitors chords has rhythm and included in Humbug (2009) album.
You can also find another musical style, including jazz ukulele chords, country music ukulele chords, pop ukulele chords, world music ukulele chords, and rock ukulele chords here.

Pretty Visitors by Arctic Monkeys Ukulele Chords


Intro:
This is a tab of the riff in the beginning;
(you can also use this for the chorus)

e|—————————————————————|
B|—————————————————————|
G|—————————————————————|
D|—————————————————————| x2
A|—————————–4–5——5——-5—————|
E|2——-2——-2——-2–5————————-3b(4)—–|

Or you could just play F#m Bm G#m x2

Trudging through the morning and the tramp with the trampoline
under his arm, shifts past your whiskers so
stark is the charm but the barking alarm waits
coiled until the corner is turned

And the bicycle wheels all struggle to move round
in your muddy mind blatantly caked and
unwilling to wind uncooperative time so he
sits on the springs until the muck goes dry

Break: F#m A F#m Bm x2

F#m Bm G#m
All the pretty visitors came and waved their arms and
F#m Bm G#m x2
cast the shadow of a snake pit on the wall

What came first the chicken or the dickhead?
Split sleep reaps rewards from ill fitting
thoughts and twilight forced you to go on a walk,
your legs start running and your head gets caught

Canopy 19 is perfectly placed for the
reasonably frightening fall from the aftertaste
You’ll have to slip away I am unhappy to say,
F#m (mute)
behold is the crook in the hammock plays

F#m Bm G#m
All the pretty visitors came and waved their arms and
F#m Bm G#m x2
cast the shadow of a snake pit on the wall

Break: F#m x4
F#m Bm F#m D x7

Behold there’s a crook in the hammock plays cruelly with the base of the scales
And fiddles with the feet on a balancing act
Gagged, bound and crafting a tale
Bm (mute)
Trailing wrapped in a gasp
Cruelly with the base and the scales
And fking fiddles with the feet on a balancing act
Gagged, bound and crafting a tale
F#m D F#m G#m
Trailing wrapped in a gasp

F#m Bm G#m
All the pretty visitors came and waved their arms and
F#m Bm G#m
cast the shadow of a snake pit on the wall

F#m Bm G#m
All the pretty visitors came and waved their arms and
cast the shadow of a snake pit on the wall

To play the most songs, including Pretty Visitors by Arctic Monkeys by ukulele, the most important basic ukulele chords to learn are C chord, D chord, G chord, and Em chord.
These set you up to play a a lot of songs, and each of them is easy to master.