If you are looking for Trying ukulele chords, you already come to the best place.
You can play versatile instrument Trying using ukulele or guitar.
This song by Bully can also be played by that instruments.
=

Trying chords has rhythm and included in album.
You can also find another musical style, including jazz ukulele chords, country music ukulele chords, pop ukulele chords, world music ukulele chords, and rock ukulele chords here.

Trying by Bully Ukulele Chords

A E F#m D 2x

e|—————————————————————————|
B|—————————————————————————|
G|—————————————————————————|
D|–7/12–11—11h12p11-9-7-9/11-14-11-14-11-14-11-14————————|
A|—————————————————————————|
E|—————————————————————————|

That kinkied up, invisible handcuffs locked on me
Been praying for my period all week
And relief that I just can’t see

I question everything, my focus, my figure, my sexuality
And how much it matters or why it would mean anything
I can’t keep it together, I’ve been better
I’ve been thinking about it every night


I’m trying, I am
I’m trying, I am
Trying to hate from my mind, I am
Trying all the time, I am
Trying to hate from my mind, I am
Trying, trying what am I

A E F#m D 2x

e|—————————————————————————|
B|—————————————————————————|
G|—————————————————————————|
D|–7/12–11—11h12p11-9-7-9/11-14-11-14-11-14-11-14————————|
A|—————————————————————————|
E|—————————————————————————|

But kinkied up, there’s no flawless education just a stupid degree
I feel enough growing so far from myself
I can’t reach, I can’t reach, I can’t reach
So brush it off, cause I wanted that it’s been dusting off
When you walk like that, here’s a sht,
There’s a wick that will keep yourself from checkers
All these loaded questions gonna eat you alive


I’m trying, I am
I’m trying, I am
Trying to hate from my mind, I am
Trying all the time, I am
Trying to hate from my mind, I am
Trying, trying what am I

If it counts for anything
I didn’t want to
I’m just looking for a clarity
To help me to get through
If you’re set in your ways
Well get enough to
It’s absolutely I can break it down for you
To feel the beast, to leave on leash
To come right back to you

I’m trying

Solo (A E F#m D 3x A E F#m)

I’m trying, I am
I’m trying, I am
Trying to hate from my mind, I am
Trying all the time, I am
Trying to hate from my mind, I am
Trying, trying what am I
Trying, trying what am I
Trying, trying what am I
Trying, trying why am I

To play the most songs, including Trying by Bully by ukulele, the most crucial basic ukulele chords to learn are C chord, D chord, G chord, and Em chord.
These set you up to play a a lot of songs, and each of them is easy to master.

If you are looking for Milkman ukulele chords, you already visit to the best place.
You can play versatile instrument Milkman using ukulele or guitar.
This song by Bully can also be played by that instruments.
=

Milkman chords has rhythm and included in Feels Like (2015) album.
You can also find another musical genres, including jazz ukulele chords, country music ukulele chords, pop ukulele chords, world music ukulele chords, and rock ukulele chords here.

Milkman by Bully Ukulele Chords



E|---0------0------5---|
B|---10--x--0------5---|
G|---9------9------7---|
D|---0------0------7---|
A|---9------9------5---|
E|---0------0------5---|

[Verse 1]


E|---0------0------5---|
B|---10--x--0------5---|
G|---9------9------7---|
D|---0------0------7---|
A|---9------9------5---|
E|---0------0------5---|

I could be a milkman
What a good milkman I would be, I would be
Droppin’ by your porch and all
It’s been a while, you’re always good to see
But I’m just a circle in Logan’s square
Spinnin’ around in my underwear
Lettin’ my body run itself dead
Just to try and keep up with my head


E|---5-----12-----7----|
B|---5-----12-----7----|
G|---5-----12-----7----|
D|---5-----12-----7----|
A|---5-----12-----7----|
E|---5-----12-----7----|

I got this feelin’, makes me wanna run
I got the feelin’
I got this feelin’, makes me wanna run
Oh I got the feelin

[Verse 2]


E|---0------0------5---|
B|---10--x--0------5---|
G|---9------9------7---|
D|---0------0------7---|
A|---9------9------5---|
E|---0------0------5---|

I could be a milkman
Or I could get up and I could be what I want to be
Cause when I love you, love you, love you baby
It makes you want to, want to lie to me
When I checked out 10 months ago
I never felt that way before
Now all this warm weather got me feelin’ nostalgic
Got a craving, gotta have it, gotta get a grip


E|---5-----12-----7----|
B|---5-----12-----7----|
G|---5-----12-----7----|
D|---5-----12-----7----|
A|---5-----12-----7----|
E|---5-----12-----7----|

I got this feelin’, makes me wanna run
I got the feelin’
I got this feelin’, makes me wanna run
Oh I got the feelin


E|---0------0------0------0----|
B|---10-----6------10-----13---|
G|---11-----7------11-----14---|
D|---0------0------0------0----|
A|---9------5------9------12---|
E|---0------0------0------0----|

[Bridge 2]


E|---0------0------0----|
B|---8------10-----16---|
G|---9------11-----17---|
D|---0------0------0----|
A|---7------9------15---|
E|---0------0------0----|


E|---0------0------5---|
B|---10--x--0------5---|
G|---9------9------7---|
D|---0------0------7---|
A|---9------9------5---|
E|---0------0------5---|

I used to be a shark
I used to be a shark
I used to be a shark
Oh I used to be a….
SHARK! SHARK! SHARK!

To play the most songs, including Milkman by Bully by ukulele, the most crucial basic ukulele chords to learn are C chord, D chord, G chord, and Em chord.
These set you up to play a a lot of songs, and each of them is easy to learn.

If you are looking for Milkman ukulele chords, you already come to the right site.
You can play versatile instrument Milkman using ukulele or guitar.
This song by Bully can also be played by that instruments.
=

Milkman chords has rhythm and included in Feels Like (2015) album.
You can also find another musical style, including jazz ukulele chords, country music ukulele chords, pop ukulele chords, world music ukulele chords, and rock ukulele chords here.

Milkman by Bully Ukulele Chords



E|---0------0------5---|
B|---10--x--0------5---|
G|---9------9------7---|
D|---0------0------7---|
A|---9------9------5---|
E|---0------0------5---|

[Verse 1]


E|---0------0------5---|
B|---10--x--0------5---|
G|---9------9------7---|
D|---0------0------7---|
A|---9------9------5---|
E|---0------0------5---|

I could be a milkman
What a good milkman I would be, I would be
Droppin’ by your porch and all
It’s been a while, you’re always good to see
But I’m just a circle in Logan’s square
Spinnin’ around in my underwear
Lettin’ my body run itself dead
Just to try and keep up with my head


E|---5-----12-----7----|
B|---5-----12-----7----|
G|---5-----12-----7----|
D|---5-----12-----7----|
A|---5-----12-----7----|
E|---5-----12-----7----|

I got this feelin’, makes me wanna run
I got the feelin’
I got this feelin’, makes me wanna run
Oh I got the feelin

[Verse 2]


E|---0------0------5---|
B|---10--x--0------5---|
G|---9------9------7---|
D|---0------0------7---|
A|---9------9------5---|
E|---0------0------5---|

I could be a milkman
Or I could get up and I could be what I want to be
Cause when I love you, love you, love you baby
It makes you want to, want to lie to me
When I checked out 10 months ago
I never felt that way before
Now all this warm weather got me feelin’ nostalgic
Got a craving, gotta have it, gotta get a grip


E|---5-----12-----7----|
B|---5-----12-----7----|
G|---5-----12-----7----|
D|---5-----12-----7----|
A|---5-----12-----7----|
E|---5-----12-----7----|

I got this feelin’, makes me wanna run
I got the feelin’
I got this feelin’, makes me wanna run
Oh I got the feelin


E|---0------0------0------0----|
B|---10-----6------10-----13---|
G|---11-----7------11-----14---|
D|---0------0------0------0----|
A|---9------5------9------12---|
E|---0------0------0------0----|

[Bridge 2]


E|---0------0------0----|
B|---8------10-----16---|
G|---9------11-----17---|
D|---0------0------0----|
A|---7------9------15---|
E|---0------0------0----|


E|---0------0------5---|
B|---10--x--0------5---|
G|---9------9------7---|
D|---0------0------7---|
A|---9------9------5---|
E|---0------0------5---|

I used to be a shark
I used to be a shark
I used to be a shark
Oh I used to be a….
SHARK! SHARK! SHARK!

To play the most songs, including Milkman by Bully by ukulele, the most crucial basic ukulele chords to learn are C chord, D chord, G chord, and Em chord.
These set you up to play a ton of songs, and each of them is easy to learn.