If you are looking for The Chemicals Between Us ukulele chords, you have visit to the right site.
You can play versatile instrument The Chemicals Between Us using ukulele or guitar.
This song by Bush can also be played by that instruments.
=

The Chemicals Between Us chords has rhythm and included in The Science of Things (1999) album.
You can also get another musical genres, including jazz ukulele chords, country music ukulele chords, pop ukulele chords, world music ukulele chords, and rock ukulele chords here.

The Chemicals Between Us by Bush Ukulele Chords


Title: The Chemicals between us
Artist: Bush
Album: Th Science of things

Instrument: 6 String Guitar

Tabbed by: WW

Tuning: Standard (E A D G B E)

PM Palm muted
b bend the note
H Harmonic

CHORDS
[D6/9]


E|-0-----0-----------0-----3----0----------||
B|-0-----0-----2-----0-----3----0------3---||
G|-4-----7-----2-----0-----0----0------2---||
D|-x-----x-----2-----2-----0----2---2--0---||
A|-2-----5-----0-----3-----x----2---2------||
E|-------------------3-----3----0---0------||

INTRO
Fill 1 Fill 1A
(0:00- 0:10) (0:10)
[D6/9]


E|-0--0-------0--0------|| ||---------0------||
B|-0--0-------0--0------|| ||--4b5----4------||
G|-4--4-------7--7------|| ||----------------||
D|-x--x-------x--x------||2x ||----------------||
A|-2--2-------5--5------|| ||----------------||
E|----------------------|| ||----------------||

Fill 2
(0:11-0:15)
[D6/9]


E|-0--0-------------------0--0--------------------------||
B|-0--0-------------------0--0--------------------------||
G|-4--4---8--8---------7--7--7--7---7--7---8--8---------||
D|-x--x---x--x--9--9---x--x--x--x---x--x---x--x---7--7--||
A|-2--2---6--6--x--x---5--5--5--5---5--5---6--6---x--x--||
E|--------------7--7------------------------------5--5--||

VERSE 1 (Play Fill 1)
I want you to rem[D6/9]ember
Bsus4 D6/9 (Fill 1A)
A love so full it could send us all ways
I want you to sur[D6/9]render


Bsus4 D6/9 ---------------> Fill 2!!!

All my feelings arose today

Fill 3


E|-0--0---------||
B|-7--7---------||
G|--------------||
D|--------0-----||
A|--------0-----||
E|--------0-----||

VERSE 2 (Play Fill 1)
Bsus4 D6/9 (Fill 1A)
And I want you to remain
Bsus4 D6/9 (Fill 3)
The power of children can amaze


Bsus4 D6/9 ----------------> Fill 2!!!

I try not to complain
I know that’s a pisser baby.

CHORUS 1 (Chorus riff (grt.1)-> + chords (gtr.2))
Chorus riff (let ring)


E|-5---5---5----------------------3---3------------5----5----||
B|---5---5---0------0---0----3----------3/5-----5------------||
G|----------------0---0---0----------------------------------||2x
D|--------------5--------------5----5--------7-------7-----7-||
A|--------------3--------------------------------------------||
E|-----------------------------------------------------------||

The chemicals between us , the walls that lie between us
Lying in this bed.
The chemicals displaced, there is no lonelier state
than lying in this bed

VERSE 3(Play fill 1)
I want you to rem[D6/9]ember


Bsus4 D6/9 -------------------->Fill 2!!!

Everything you said, every driven word.
Like a h[D6/9]ammer, hell to my hea[D6/9]d.

Play CHORUS 1 again.

BRIDGE AFTER CHORUS (2:03) (Play Chorus riff + chords 1x)
Chemicals between us, chemicals between us
than lying in this bed.

INTERLUDE (2:13- 2:22)


E|-5---5---5----------------------3---3------------5----5----||
B|---5---5---0------0---0----3----------3/5-----5------------||
G|----------------0---0---0----------------------------------||
D|--------------5--------------5----5--------7-------7-----7-||
A|--------------3--------------------------------------------||
E|-----------------------------------------------------------||

Fill 4(2:23- 2:28)
____________H__________ ___H___


E|-0-0-0--7-7-7-7-7-7-7-7-7-7-7-7--0-0--7-7-7-7--0-0-0-0-0-0-0-0-0-||
B|-0-0-0--7-7-7-7-7-7-7-7-7-7-7-7--0-0--7-7-7-7--0-0-0-0-0-0-0-0-0-||
G|-----------------------------------------------------------------||
D|-----------------------------------------------------------------||
A|-----------------------------------------------------------------||
E|-----------------------------------------------------------------||

VERSE 4 (play fill 1)
We’re of the hollow men,[D6/9] we are the naked ones
We never meant you harm,[D6/9] never meant you wrong


Bsus4 + Fill 4!!! D6/9 ---------------------> Fill 2!!!

And I’d love to thank all of my lovers, lovers,
lovers, lovers, lovers, lovers

CHORUS 2 (Play Chorus riff + chords)
The chemicals between between us, army of achievers
Lying in this bed
The chemicals displaced, there is no lonelier state
than lying in this bed

OUTRO


E|5-----5-----5-------------------------------------||
B|---5-----5-----0-------0-----0---------------3----||
G|--------------------0-----0-----0--------3--------||
D|------------------5------------------5------------||
A|------------------3-------------------------------||
E|--------------------------------------------------||

“Chemicals between us, chemicals between us, chemicals…”


E|-5----5-----5-----------------------3---3---------5-----5--||
B|---5-----5----0------0---0-----3----------3/5---5-----5----||
G|-------------------0---0----0------------------------------||
D|-----------------5----------------5---5-------7-----7------||
A|-----------------3-----------------------------------------||
E|-----------------------------------------------------------||

“Chemicals between


E|--0-------3---|| ||----------3-----------3--||
B|--0-------3---|| ||------3---3-------3---3--||
G|--0-------0---|| ||------2---0-------2---0--|| repeat and fade
D|--2-------0---|| ||--2---0---0----2--0---0--||
A|--2-------x---|| ||--2-------x----2------x--||
E|--0-------3---|| ||--0-------3----0------3--||

us”

To play the this songs, including The Chemicals Between Us by Bush by ukulele, the most crucial basic ukulele chords to learn are C chord, D chord, G chord, and Em chord.
These set you up to play a many of songs, and each of them is easy to learn.

If you are looking for Greedy Fly ukulele chords, you already come to the right site.
You can play versatile instrument Greedy Fly using ukulele or guitar.
This song by Bush can also be played by that instruments.
=

Greedy Fly chords has rhythm and included in Razorblade Suitcase (1996) album.
You can also get another musical genres, including jazz ukulele chords, country music ukulele chords, pop ukulele chords, world music ukulele chords, and rock ukulele chords here.

Greedy Fly by Bush Ukulele Chords


by BUSH
from RAZORBLADE SUITCASE

Transcribed by: John Meloche (d.meloche@sauron.globalx.net)

Normal Tuning

Chord Formations:


e------------6--1--4--8--
B------------6--1--4--8--
G--5--3------7--2--5--8--
D--5--5--6---8--3--6--10-
A--3--3--6---8--3--6--10-
E--------4---6--1--4--8--

Intro:


e--8-----------------|------------8---------|
B-----8---8---8----8-|-------8------8----8--|
G-------8---8--------|----11---11-----11----|
D--10-----------10---|--9-------------------|
A--------------------|----------------------|
E--------------------|----------------------|
e--------------------|------------8---------|
B-----8---8---8----8-|-------8------8----8--|
G-------8---8--------|----11---11-----11----|
D--10-----------10---|--9-------------------|
A--------------------|----------------------|
E--------------------|----------------------|

Riff A:


e--------------------|------------8---------|
B-----8---8---8----8-|------11------11--11--|
G-------8---8--------|----8----8------8-----|
D--10-----------10---|--9-------------------|
A--------------------|----------------------|
E--------------------|----------------------|

Riff B:


e-8-----8--------|
B---9-9----------|
G---------10-10--|
D----------------|
A----------------|
E----------------|

Riff C:


e--------------------------------------------------|
B--8--8--8--8--8--8--------------------------------|
G--8--8--8--8--8--8--8--8--8--8--8--8--8--8--8--8--|
D--10-10-10-10-10-10-10-10-10-10-10-10-10-10-10-10-|
A--------------------11-11-11-11-11-11-11-11-11-11-|
E--------------------------------------------------|

note: there is a change between the intro and riff A. In the intro
the chords used are Cm and Cmsus#4/B, and in riff A the chords are
Cm and Cm7/B.

Play Intro
Play Riff A 2x with background chords C5 Ab5



verse 1:
do you feel the way you hate
do you hate the way you feel
always closer to the flame
ever closer to the blade

yeah

(Play Riff A 2 times)

verse 2:

i am poison crazy lush
built these hands to lift me up
we are servants to our formulaic ways

(Play Riff A)

pre-chorus:

(With Riff C)
i’m screaming daisies
from 14 miles away
i’ve got my own time
got it all today

chorus:

make up your mind
need some help
find this mind, mind, mind

verse 3:



limbo this and limbo that
you were this and you were that
ever know that what you fear is what you find

(play riff A)

pre-chorus:
(first line with riff c)
this indian summer
i signed my life away
there’s a greedy fly in here
and i fly away

chorus:

make up your mind
need some help
find this mind, mind, mind

(play riff B 2x)

chorus:

make up your mind
need some help
find this mind, mind, mind


Solo (totally correct even though it may sound weird):


e-------------------------------------------------------------------
b-----------------------------------------------------11fb----------
g------------------------------------8--8v--10--10fb----------------
d--------------------------------10---------------------------------
a--10-----13/12--10--6------6-------------------------------10------
e--8------11/10--8---4------4-------------------------------8-------
e--8-----8-----8-----8------------------8-----8---------8-----8-----
b--11fb--11fb--11fb-----11--------11----11----11fb--11--11fb--11fb--
g---------------------------8v----8---------------------------------
d-------------------------------------------------------------------
a-------------------------------------------------------------------
e-------------------------------------------------------------------
e--8---------11fb--11fb--11fb--11fb--------|
b--11fb------11fb--11fb--11fb--11fb--------|
g---------8--------------------------------|
d------------------------------------------|
a--------------------------------------10--|
e--------------------------------------8---|




Finish:

make up your mind
need some help
find this mind, mind, mind
















Finish with about 5 or 6 hits of Ab

To play the this songs, including Greedy Fly by Bush by ukulele, the most important basic ukulele chords to learn are C chord, D chord, G chord, and Em chord.
These set you up to play a a lot of songs, and each of them is easy to learn.

If you are looking for Land of the Living ukulele chords, you already visit to the best place.
You can play versatile instrument Land of the Living using ukulele or guitar.
This song by Bush can also be played by that instruments.
=

Land of the Living chords has rhythm and included in Golden State (2001) album.
You can also find other musical style, including jazz ukulele chords, country music ukulele chords, pop ukulele chords, world music ukulele chords, and rock ukulele chords here.

Land of the Living by Bush Ukulele Chords


_______________________________________________________________
/
| NOTE: this may not be 100% accurate, but it’s very, very, very, |
| very, very, very, very, very, very close, either |
| way it gives you a starting point. |
_______________________________________________________________/

for when I show the tabs for the chords being strummed, I’m not gonna
tab out how many times it’s strumed (that always comes out wrong);
besides, if you’ve heard the song, then you know how it goes.

Intro:

e|—————————–| |———|
B|—————————–| |———|
G|—-12-12-12—-12-12-12—–| (2x) |———|
D|-5-(10)——5-(10)——9-9-| |-4-5-7-7-|
A|-5-(10)——5-(10)——9-9-| |-4-5-7-7-|
E|-3———–3———–7-7-| |-2-3-5-5-|

Riff 1: (this isn’t really a riff, I just did it this way for ease)

e|———|
B|———| Riff 2: (unlike R1, R2 continues though the entire line)
G|—7—–| e|———|————-|
D|-4-7-7—| B|———|————-|
A|-4-5-7—| G|———|-11-12-14-14-| (these two parts are
E|-2—5—| D|-4-5-7-7-|-11-12-14-14-| played simultaneously)
A|-4-5-7-7-|-9–10-12-12-|
E|-2-3-5-5-|————-|

Verse 1:
R1 R1
I found my self in another world
R1 R1
I found myself alive and well
R2 R2
I am the vapor I am the gas
R2 F#/F# (both octaves)
You be the angel of everything

Chorus:
This is the land of the living
This is the land of reprisal
G B R2 R2
This is the land of the living, the living, the living

Verse 2:
R1 R1
I lost myself to a wider plain
R1 R2
I opened up I’m not the same
R2 R2
I am electric made of wire
R2 F#/F#
I’ll be the match you be the fire

Chorus:
This is the land of the living
This is the land of reprisal
This is the land of the living, the living, the living
G B R2 R2 R2 R2
The living, the living

C D# E (i think they just “pluck”
C D# E these chords -w/o dist)

Bridge:
In myself I try for you
Walk a thousand miles to get us through
Airwaves, Jetplanes, Safe landing, no branding

Chorus:
Laaaaaannnd
Laaaaaannnd
This is the land of the living
This is the land of reprisal
This is the land of the living
This is the land of survival
Survival
Laaaaaannnd
Laaaaaannnd
This is the land of the living, the living, the living
The living, the living, the living, the living
G~~
The living, the living

most of the last chorus is underlined by a guitar “solo”,
it’s not really a big part of the song, and it doesn’t sound
like it repeats much (needless to say, I’m not gonna tab it)

To play the most songs, including Land of the Living by Bush by ukulele, the most crucial basic ukulele chords to learn are C chord, D chord, G chord, and Em chord.
These set you up to play a many of songs, and each of them is easy to master.

If you are looking for Communicator ukulele chords, you have come to the right place.
You can play versatile instrument Communicator using ukulele or guitar.
This song by Bush can also be played by that instruments.
=

Communicator chords has rhythm and included in Razorblade Suitcase (1996) album.
You can also find other musical style, including jazz ukulele chords, country music ukulele chords, pop ukulele chords, world music ukulele chords, and rock ukulele chords here.

Communicator by Bush Ukulele Chords


Bush-Communicator
tabbed by
Shawn Robinson(Personalh@hotmail.com)
Key
slide
hhammeron
ppull off
xmute string
^bend note
~vibrate
p.m.palm mute
()ghost note

Guitar 1(clean)


E----------------
B----------------
G---------------- 25 times
D----------------
A-2-2-0----------
E-------2~-0-2-0-
RIFF A----------|
E---------
B---------
G-5-5-5---

D-5-5-5-2- 4 times
[A-3-3-3-2-]


E-------0-

RIFF B—|

RIFF A(13x)
RIFF B(6x) On Last time let the G string ring after
the last “C” chord
RIFF A(3x)

Guitar 1(w/chorus)I think!


E---------------------
B---------------------
G-4---4-4-2---4-4-0---
D---4-------4-------4-
A---------------------
E---------------------

RIFF A(7x)
RIFF B(6x)

Guitar 2


E-------------
B-------------
G-4-2-4-------
D-------4-24- 4 times
A-------------
E-------------

on second time Guitar 1 plays this..


E-------------------------------
B-------------------------------
G-4-x-x-4-x-x-4-4-4-4-x-x-x-4-4-
D-------------------------------
A-------------------------------
E-------------------------------

RIFF B(1x)
then ending chord is..
[G-5-]
[D-5-]
[A-3-]

To play the most songs, including Communicator by Bush by ukulele, the most important basic ukulele chords to learn are C chord, D chord, G chord, and Em chord.
These set you up to play a ton of songs, and each of them is easy to learn.

If you are searching for Land of the Living ukulele chords, you’ve come to the right place.
You can play versatile instrument Land of the Living using ukulele or guitar.
This song by Bush can also be played by that instruments.
=

Land of the Living chords has rhythm and included in Golden State (2001) album.
You can also get another musical genres, including jazz ukulele chords, country music ukulele chords, pop ukulele chords, world music ukulele chords, and rock ukulele chords here.

Land of the Living by Bush Ukulele Chords


_______________________________________________________________
/
| NOTE: this may not be 100% accurate, but it’s very, very, very, |
| very, very, very, very, very, very close, either |
| way it gives you a starting point. |
_______________________________________________________________/

for when I show the tabs for the chords being strummed, I’m not gonna
tab out how many times it’s strumed (that always comes out wrong);
besides, if you’ve heard the song, then you know how it goes.

Intro:

e|—————————–| |———|
B|—————————–| |———|
G|—-12-12-12—-12-12-12—–| (2x) |———|
D|-5-(10)——5-(10)——9-9-| |-4-5-7-7-|
A|-5-(10)——5-(10)——9-9-| |-4-5-7-7-|
E|-3———–3———–7-7-| |-2-3-5-5-|

Riff 1: (this isn’t really a riff, I just did it this way for ease)

e|———|
B|———| Riff 2: (unlike R1, R2 continues though the entire line)
G|—7—–| e|———|————-|
D|-4-7-7—| B|———|————-|
A|-4-5-7—| G|———|-11-12-14-14-| (these two parts are
E|-2—5—| D|-4-5-7-7-|-11-12-14-14-| played simultaneously)
A|-4-5-7-7-|-9–10-12-12-|
E|-2-3-5-5-|————-|

Verse 1:
R1 R1
I found my self in another world
R1 R1
I found myself alive and well
R2 R2
I am the vapor I am the gas
R2 F#/F# (both octaves)
You be the angel of everything

Chorus:
This is the land of the living
This is the land of reprisal
G B R2 R2
This is the land of the living, the living, the living

Verse 2:
R1 R1
I lost myself to a wider plain
R1 R2
I opened up I’m not the same
R2 R2
I am electric made of wire
R2 F#/F#
I’ll be the match you be the fire

Chorus:
This is the land of the living
This is the land of reprisal
This is the land of the living, the living, the living
G B R2 R2 R2 R2
The living, the living

C D# E (i think they just “pluck”
C D# E these chords -w/o dist)

Bridge:
In myself I try for you
Walk a thousand miles to get us through
Airwaves, Jetplanes, Safe landing, no branding

Chorus:
Laaaaaannnd
Laaaaaannnd
This is the land of the living
This is the land of reprisal
This is the land of the living
This is the land of survival
Survival
Laaaaaannnd
Laaaaaannnd
This is the land of the living, the living, the living
The living, the living, the living, the living
G~~
The living, the living

most of the last chorus is underlined by a guitar “solo”,
it’s not really a big part of the song, and it doesn’t sound
like it repeats much (needless to say, I’m not gonna tab it)

To play the this songs, including Land of the Living by Bush by ukulele, the most important basic ukulele chords to learn are C chord, D chord, G chord, and Em chord.
These set you up to play a ton of songs, and each of them is easy to learn.

If you are searching for Spacetravel ukulele chords, you’ve come to the right place.
You can play versatile instrument Spacetravel using ukulele or guitar.
This song by Bush can also be played by that instruments.
=

Spacetravel chords has rhythm and included in The Science of Things (1999) album.
You can also get other musical style, including jazz ukulele chords, country music ukulele chords, pop ukulele chords, world music ukulele chords, and rock ukulele chords here.

Spacetravel by Bush Ukulele Chords


SPACETRAVEL – Bush
Album: The Science of Things

This song was tabbed by: Gordon Huntley.
This is one of the best songs on the album!!! It rocks! Be sure to
pick up this
album if you haven’t already!!

This tab is almost complete but I need your help to finish it.
e-mail ANY comments or suggestions to: semikorny_boy@hotmail.com

Intro A: (anything between play palm-muted!)


e|-----------------------------------------------------------
B|-----------------------------------------------------------
G|-----------------------------------------------------------
D|-----------------------------------------------
A|-----------------
E|-----------------------------------------------------------

Intro B: (anything between play palm-muted!)


e|-----------------------------------------------------------------------------------
B|-----------------------------------------------------------------------------------
G|------------------4-----------4-----4-------------------4-----------5-5---5-5-5-5--
D|--------------------3-----------------3-------------------3---------5-5---5-5-5-5--
A|-----------------------------3-3---3-3-3-3--
E|-----------------------------------------------------------------------------------

Verse and Intro C:


e|--------------------------------------
B|--------------------------------------
G|--4-4--4-4-4--4-4--5-5--5-5-5-5--5-5--
D|--4-4--4-4-4--4-4--5-5--5-5-5-5--5-5--
A|--2-2--2-2-2--2-2--3-3--3-3-3-3--3-3--
E|--------------------------------------

Chorus:

GUITAR 1
” my future lies… in space travel”
“she’s coming
over
me”


e|--------------------------------------------------------------------------------
B|--------------------------------------------------------------------------------
G|--7-7--7-7-7--7-7--9-9--9-------------------------------------------------------
D|--7-7--7-7-7--7-7--9-9--9----------------------------------------10----7--------
A|--5-5--5-5-5--5-5--7-7--7----------------------------------------10----7--------
E|------------------------------------------------------------------8----5--------

GUITAR 2 (i’m not sure of this part)
anything between [ and ], play a harmonic


e|--------------------------------------------------------------------------------
B|--------------------------------------------------------------------------------
G|-----------------------------------------------------------------
D|-----------------------------------------------------------------------
A|--------------------------------------------------------------------------------
E|------------------------------------------------------------------8~~~-5~~~~~~--

RIFF @ 2:26


e|-----------------
B|-----------------
G|--7------7/9-----
D|--7------7/9--9--
A|--5------5/7--9--
E|--------------7--

RIFF – “1,2,3…”
2:35 2:39


e|----------------7-5--7-5--7-5--7-5--
B|----------------5-5--5-5--5-5--5-5--etc etc
G|------------------------------------
D|-------7----------------------------
A|-------7----------------------------
E|--85--5----------------------------

Ending – ?

Here’s something to entertain you at least. It’s not complete and not
100% accurate so I’m open
to any suggestions.

P.S. – anyone got a tab for “Old Enough” by Nickelback or “So Long” by
Everlast’!!

To play the most songs, including Spacetravel by Bush by ukulele, the most crucial basic ukulele chords to learn are C chord, D chord, G chord, and Em chord.
These set you up to play a a lot of songs, and each of them is easy to learn.

If you are looking for The Sound of Winter ukulele chords, you’ve come to the best place.
You can play versatile instrument The Sound of Winter using ukulele or guitar.
This song by Bush can also be played by that instruments.
=

The Sound of Winter chords has rhythm and included in The Sea of Memories (2011) album.
You can also get other musical genres, including jazz ukulele chords, country music ukulele chords, pop ukulele chords, world music ukulele chords, and rock ukulele chords here.

The Sound of Winter by Bush Ukulele Chords


The Sea of Memories
2011

“The Sound of Winter”

Em (7th fret)

Mind strong
body strong
try to find equilibrium
head straight
screwed on
we’re screwed up for too long


E:--------------------------------------------14s12--17-15-14------|
B:-----------------------------------------------------------------|
G:-----------------------------------------------------------------|
D:---5----7----5----7----5----7----5----7--------------------------|
A:-7----5----7----5----7----5----7----5----------------------------|
E:-----------------------------------------------------------------|

i don’t want to lean on the waves
i watch the storm evaporate
i think of you in stary skies
i keep you so alive


E:-------------------------------------------------|
B:-------------------------------------------------|
G:-------------------------------------------------|
D:-7--7-7-7-------5--5-5-5-------2-2...------------|
A:-7--7-7-7-------5--5-5-5-------2-2...------------|
E:-5--5-5-5-5-7-5-3--3-3-3-3-5-3-0-0...------------|

let’s walk through the fire together
disappear in the golden sands


E:----------7-------------7------------------7----7----------------|
B:----8---8---10-8---8-10---10-8---8----8-10---10---10~~-----------|
G:-(9)--9----------9-------------9----9----------------------------|
D:-----------------------------------------------------------------|
A:-----------------------------------------------------------------|
E:-----------------------------------------------------------------|

it’s all in your face
i see you break
it’s like the sound of winter
the bleeding love
the silent escape
you got to hang on to yourself
it’s like the sound of winter

medusa smiles
judas lips
open arms
finger tips
love bites and recompense
i’ll be with you
until the end
let’s walk through the fire together
disappear in the golden sands
it’s all in your face
i see you break
it’s like the sound of winter
the bleeding love
the silent escape
you got to hang on to yourself
it’s all in your face
i see you break
it’s like the sound of winter
the bleeding love
the silent escape
you got to hang on to yourself
it’s like the sound of winter


E:-10-10-10-10-8-8-8-8-7-7-7-7-7s5-5s7-b7r-5-7-s8-7-5-7-s8-7--10-8-7----7-8-7-|
B:-------------------------------------------------------------------10-------|
G:----------------------------------------------------------------------------|
D:----------------------------------------------------------------------------|
A:----------------------------------------------------------------------------|
E:----------------------------------------------------------------------------|

hang onto yourself hang onto yourself


E:------------7-----------7-7------------------7-----------7-7-------|
B:-----8---10---------8-------10--------8---10---------8-------10----|
G:-7s9---9------7s9-9---9-----------7s9---9------7s9-9---9-----------|
D:-------------------------------------------------------------------|
A:-------------------------------------------------------------------|
E:-------------------------------------------------------------------|


E:-----------------------------------------------------------------|
B:-----------------------------------------------------------------|
G:-17-17-17-16-16-16-14-14-14-12-12-12-11-11-11--------------------|
D:-----------------------------------------------------------------|
A:-----------------------------------------------------------------|
E:-----------------------------------------------------------------|


E:----------------19----------------19-19--------------------19----------------19-19-------|
B:-------20----22-------------20----------22--------20----22-------------20----------22----|
G:-19s21----21-------19s21-21----21-----------19s21----21-------19s21-21----21-------------|
D:-----------------------------------------------------------------------------------------|
A:-----------------------------------------------------------------------------------------|
E:-----------------------------------------------------------------------------------------|


E:------------------------------|
B:------20-------20----20...----|
G:-19s21~~--19s21~~--21--...----|
D:------------------------------|
A:------------------------------|
E:------------------------------|

it’s like the sound of winter

it’s all in your face
i see you break
it’s like the sound of winter
the bleeding love
the silent escape
you got to hang on to yourself
it’s like the sound of winter


E:----------------19----------------19-19--------------------19----------------19-19-------|
B:-------20----22-------------20----------22--------20----22-------------20----------22----|
G:-19s21----21-------19s21-21----21-----------19s21----21-------19s21-21----21-------------|
D:-----------------------------------------------------------------------------------------|
A:-----------------------------------------------------------------------------------------|
E:-----------------------------------------------------------------------------------------|

it’s like the sound of winter


E:----------------19----------------19-19--------------------19----------------19-19-------|
B:-------20----22-------------20----------22--------20----22-------------20----------22----|
G:-19s21----21-------19s21-21----21-----------19s21----21-------19s21-21----21----------9-|
D:-----------------------------------------------------------------------------------------|
A:-----------------------------------------------------------------------------------------|
E:-----------------------------------------------------------------------------------------|

hang onto yourself hang onto yourself

To play the most songs, including The Sound of Winter by Bush by ukulele, the most important basic ukulele chords to learn are C chord, D chord, G chord, and Em chord.
These set you up to play a a lot of songs, and each of them is easy to learn.

If you are searching for Inflatable ukulele chords, you have visit to the right site.
You can play versatile instrument Inflatable using ukulele or guitar.
This song by Bush can also be played by that instruments.
=

Inflatable chords has rhythm and included in Golden State (2001) album.
You can also get another musical genres, including jazz ukulele chords, country music ukulele chords, pop ukulele chords, world music ukulele chords, and rock ukulele chords here.

Inflatable by Bush Ukulele Chords


band : bush
song : inflatable
album : golden state
tabbed by: EeYoRE
e-mail : eskemu@hotmail.com
icq : 111838101
url : www.geocities.com/fatstaremo
url2 : www.brnzine.com


----- ----- ----- ----- ----- ----- eI---I---I---I
----- --2-- --5-- --3-- ----- --1-- BI-o-I---I---I
--7-- --3-- --6-- --4-- ----- --2-- GI---I---I---I
--7-- --4-- --7-- --5-- --2-- --3-- DI---I-o-I---I
--5-- --4-- --7-- --5-- --2-- --3-- AI---I---I-o-I
----- --2-- --5-- --3-- --0-- --1-- EI---I---I---I

Let it slide overhead ::
When I believe in you my soul can rest ::
But as love that’s really love can never fail ::
But fail it does :: When we shine like the sun ::
You seem the only one my only friend ::
You’re so pretty in white pretty when you’re faithful ::
So pretty in white pretty when you’re faithful :: when you’re faithful ::
I resigned from myself ::
Took a break as someone else ::
It’s like we’ve come undone ::
But I’ve only just become inflatable for you ::
You’re so pretty in white ::
Pretty when you’re faithful ::
So pretty in white pretty when you’re faithful ::
When you’re faithful ::

backround guitar -riff- thanx to (aloyarc96)


eI------------------------------
BI--10-------10-------10--------
GI-------11-------11-------11---
DI-0---0----0---0----0----------
AI------------------------------
EI------------------------------
eI------------------------------
BI---10-------10-------10-------
GI-------11-------11-------11---
DI------------------------------
AI-9---9----9---9----9----------
EI------------------------------
eI------------------------------
BI---10-------10-------10-------
GI-------9--------9--------9----
DI------------------------------
AI-0---0----0---0----0----------
EI------------------------------
eI---------------------------------
BI---------------------------------
GI-----9----------9----------9-----
DI----------12---------12------12--
AI--10---10----10---10----10-------
EI---------------------------------

solo


eI----------------------------------------------------------I
BI----------------------------------------------------------I
GI--/7--777--7-5-4-5-4--------------------------------------I
DI--------------------4--4-5-7--712-12--12-11-9--911--4^--I
AI-----------------------------------------------------7----I
EI----------------------------------------------------------I

I don’t mind most of the time ::
But you push me so far inside ::
You’re so pretty in white ::
Pretty when you’re faithful ::
Faithful

end

To play the this songs, including Inflatable by Bush by ukulele, the most crucial basic ukulele chords to learn are C chord, D chord, G chord, and Em chord.
These set you up to play a many of songs, and each of them is easy to master.

If you are searching for Inflatable ukulele chords, you have visit to the right place.
You can play versatile instrument Inflatable using ukulele or guitar.
This song by Bush can also be played by that instruments.
=

Inflatable chords has rhythm and included in Golden State (2001) album.
You can also get another musical style, including jazz ukulele chords, country music ukulele chords, pop ukulele chords, world music ukulele chords, and rock ukulele chords here.

Inflatable by Bush Ukulele Chords

band : bush
song : inflatable
album : golden state
tabbed by: EeYoRE
e-mail : eskemu@hotmail.com
icq : 111838101
url : www.geocities.com/fatstaremo
url2 : www.brnzine.com


----- ----- ----- ----- ----- ----- eI---I---I---I
----- --2-- --5-- --3-- ----- --1-- BI-o-I---I---I
--7-- --3-- --6-- --4-- ----- --2-- GI---I---I---I
--7-- --4-- --7-- --5-- --2-- --3-- DI---I-o-I---I
--5-- --4-- --7-- --5-- --2-- --3-- AI---I---I-o-I
----- --2-- --5-- --3-- --0-- --1-- EI---I---I---I

Let it slide overhead ::
When I believe in you my soul can rest ::
But as love that’s really love can never fail ::
But fail it does :: When we shine like the sun ::
You seem the only one my only friend ::
You’re so pretty in white pretty when you’re faithful ::
So pretty in white pretty when you’re faithful :: when you’re faithful ::
I resigned from myself ::
Took a break as someone else ::
It’s like we’ve come undone ::
But I’ve only just become inflatable for you ::
You’re so pretty in white ::
Pretty when you’re faithful ::
So pretty in white pretty when you’re faithful ::
When you’re faithful ::

backround guitar -riff- thanx to (aloyarc96)


eI------------------------------
BI--10-------10-------10--------
GI-------11-------11-------11---
DI-0---0----0---0----0----------
AI------------------------------
EI------------------------------
eI------------------------------
BI---10-------10-------10-------
GI-------11-------11-------11---
DI------------------------------
AI-9---9----9---9----9----------
EI------------------------------
eI------------------------------
BI---10-------10-------10-------
GI-------9--------9--------9----
DI------------------------------
AI-0---0----0---0----0----------
EI------------------------------
eI---------------------------------
BI---------------------------------
GI-----9----------9----------9-----
DI----------12---------12------12--
AI--10---10----10---10----10-------
EI---------------------------------

solo


eI----------------------------------------------------------I
BI----------------------------------------------------------I
GI--/7--777--7-5-4-5-4--------------------------------------I
DI--------------------4--4-5-7--712-12--12-11-9--911--4^--I
AI-----------------------------------------------------7----I
EI----------------------------------------------------------I

I don’t mind most of the time ::
But you push me so far inside ::
You’re so pretty in white ::
Pretty when you’re faithful ::
Faithful

end

To play the most songs, including Inflatable by Bush by ukulele, the most crucial basic ukulele chords to learn are C chord, D chord, G chord, and Em chord.
These set you up to play a ton of songs, and each of them is easy to learn.

If you are searching for Monkey ukulele chords, you already come to the best place.
You can play versatile instrument Monkey using ukulele or guitar.
This song by Bush can also be played by that instruments.
=

Monkey chords has rhythm and included in Sixteen Stone (1994) album.
You can also get other musical style, including jazz ukulele chords, country music ukulele chords, pop ukulele chords, world music ukulele chords, and rock ukulele chords here.

Monkey by Bush Ukulele Chords


Intro: D,A (2x)
Verse 1,2: A,D (2x)
Pre-Chorus: ”We, we don’t mind”
G,F/F5 (2x)

Chorus: ”I’m monkey on the drip…”
C, Bb
Chorus part 2: (”monkey, monkey, monkey, monkey…”)

Verse 3: ”you take such pretty photos…”
D,A

e—-
[B—-]
[G—-]
[D–3–]
[A–3–]E–0–

Lyrics:
the mind is all we kiss everything
we say we love it’s the skin we’re in
you’re a retrograde a vacancy
you’re the one i love
the hate in me
lazy day on a darker breed
to have is not what it’s made to be
you come alone on a mass attack
sucking your tantric suck
fooling your one-eyed cat

we don’t mind

we deviate our gravy brains
set ’em on fire they’re all the same
i’m a lionface
no sancho panzo
i’m riddled by you
i could’ve been better

i’m a monkey on a drip
sucker monkey on a drip

you take such pretty photos
when will you be worthy of your good side
where will you be
when the clouds break
and it all takes
just a little more than you have
we don’t mind

To play the this songs, including Monkey by Bush by ukulele, the most crucial basic ukulele chords to learn are C chord, D chord, G chord, and Em chord.
These set you up to play a ton of songs, and each of them is easy to learn.

  • 1
  • 2