If you are looking for Alone in a Crowd ukulele chords, you’ve come to the best place.
You can play versatile instrument Alone in a Crowd using ukulele or guitar.
This song by Catch 22 can also be played by that instruments.
=

Alone in a Crowd chords has rhythm and included in Alone in a Crowd (2000) album.
You can also get another musical genres, including jazz ukulele chords, country music ukulele chords, pop ukulele chords, world music ukulele chords, and rock ukulele chords here.

Alone in a Crowd by Catch 22 Ukulele Chords


-------------------------------------------------------------------------------

Alone in a Crowd – Catch 22


-------------------------------------------------------------------------------

Tabbed by: Mitch
Email: Mitch3a@gmail.com

Tuning: EADGBe


e|--------------3-----1--------0-----0---------x-------|
B|--1-----3--------0--------1-----0-----1------x-------|
G|-----0-----0-----------0---------------------x-------|
D|--------------2-----3------------------------x-------|
A|--3-----2-----------------3-----------3------x-------|
E|--------------------------------3------------x-------|

Cemetery break the stone
Mom was right, shoulda stayed at home
Seems like all the good old days are gone
Back and forth and side to side
A lonely boy, a mans disguise
Another silhouette against the sky
Overcome the obstacle of animosity
Em Am Dm fill
Take me to my old back yard, security and family

fill


e|--0-----------|
B|--0--3--------|
G|--0-----2--1--|
D|--0-----------|
A|--------------|
E|--3-----------|

When all is said and all is done Im not the only one
When all is said and all is done
Take it all for granted, I dont
mind its all been handed down to me
But ill give it back someday
Once upon a time a tale,
began on a television
now I watch it slowly spin away
Overcome the obstacle of animosity
Take me to my old back yard, security and family
When all is said and all is done Im not the only one
When all is said and all is done

(same C-Dm-F-G for piano solo)

Clean the slate, turn the page
Lonely boy has paved the way
Mom was right, I should have stayed at home
When all is said and all is done Im not the only one
When all is said and all is done Im not the only one
When all is said and all is done Im not the only one
When all is said and all is done
seems like all the good old days are gone

| / slide up
| slide down
| h hammer-on
| p pull-off
| ~ vibrato
| + harmonic
| x Mute note

To play the most songs, including Alone in a Crowd by Catch 22 by ukulele, the most crucial basic ukulele chords to learn are C chord, D chord, G chord, and Em chord.
These set you up to play a many of songs, and each of them is easy to learn.

If you are looking for Alone in a Crowd ukulele chords, you already visit to the best site.
You can play versatile instrument Alone in a Crowd using ukulele or guitar.
This song by Catch 22 can also be played by that instruments.
=

Alone in a Crowd chords has rhythm and included in Alone in a Crowd (2000) album.
You can also get other musical genres, including jazz ukulele chords, country music ukulele chords, pop ukulele chords, world music ukulele chords, and rock ukulele chords here.

Alone in a Crowd by Catch 22 Ukulele Chords


-------------------------------------------------------------------------------

Alone in a Crowd – Catch 22


-------------------------------------------------------------------------------

Tabbed by: Mitch
Email: Mitch3a@gmail.com

Tuning: EADGBe


e|--------------3-----1--------0-----0---------x-------|
B|--1-----3--------0--------1-----0-----1------x-------|
G|-----0-----0-----------0---------------------x-------|
D|--------------2-----3------------------------x-------|
A|--3-----2-----------------3-----------3------x-------|
E|--------------------------------3------------x-------|

Cemetery break the stone
Mom was right, shoulda stayed at home
Seems like all the good old days are gone
Back and forth and side to side
A lonely boy, a mans disguise
Another silhouette against the sky
Overcome the obstacle of animosity
Em Am Dm fill
Take me to my old back yard, security and family

fill


e|--0-----------|
B|--0--3--------|
G|--0-----2--1--|
D|--0-----------|
A|--------------|
E|--3-----------|

When all is said and all is done Im not the only one
When all is said and all is done
Take it all for granted, I dont
mind its all been handed down to me
But ill give it back someday
Once upon a time a tale,
began on a television
now I watch it slowly spin away
Overcome the obstacle of animosity
Take me to my old back yard, security and family
When all is said and all is done Im not the only one
When all is said and all is done

(same C-Dm-F-G for piano solo)

Clean the slate, turn the page
Lonely boy has paved the way
Mom was right, I should have stayed at home
When all is said and all is done Im not the only one
When all is said and all is done Im not the only one
When all is said and all is done Im not the only one
When all is said and all is done
seems like all the good old days are gone

| / slide up
| slide down
| h hammer-on
| p pull-off
| ~ vibrato
| + harmonic
| x Mute note

To play the most songs, including Alone in a Crowd by Catch 22 by ukulele, the most crucial basic ukulele chords to learn are C chord, D chord, G chord, and Em chord.
These set you up to play a ton of songs, and each of them is easy to master.

If you are searching for What Goes Around Comes Around ukulele chords, you already come to the best place.
You can play versatile instrument What Goes Around Comes Around using ukulele or guitar.
This song by Catch 22 can also be played by that instruments.
=

What Goes Around Comes Around chords has rhythm and included in Alone in a Crowd (2000) album.
You can also get another musical genres, including jazz ukulele chords, country music ukulele chords, pop ukulele chords, world music ukulele chords, and rock ukulele chords here.

What Goes Around Comes Around by Catch 22 Ukulele Chords


Catch 22 – What Goes Around Comes Around

i couldn’t find a good tab for this song, so i made my own. should be pretty accurate.
let me know: hiwwe@gmx.de

v upstroke; + no mute

Intro (clean; actually acoustic)
v


e|-6--2-------------------1--|
B|-6--2-------------------1--|
G|-6--3---------2-3-2-----2--|
D|-8--4-------3-------3---3--|
A|-8--4-----3-------------3--|
E|-6--2---1---------------1--|

Intro II (clean and very fast ska upstrokes)


E|-6--4--2--4--6--4--2--4--2--4--6----2--4--6----2--4-|
B|-6--4--2--4--6--4--2--4--2--4--6----2--4--6----2--4-|
G|-6--5--3--5--6--5--3--4--3--5--6----3--5--6----3--5-|
D|-8--6--4--6--8--6--4--6--4--6--8----4--6--8----4--6-|
A|-8--6--4--6--8--6--4--6--4--6--8----4--6--8----4--6-|
E|-6--4--2--4--6--4--2--4--2--4--6----2--4--6----2--4-|

Pre Verse (with[+] distortion)[+]


e|-------------------|
B|-------------------|
G|-------------------|
D|--8--6--4--6--8----|
A|--8--6--4--6--8----|
E|--6--4--2--4--6----|

Verse (clean and very fast ska upstrokes)


e|-6--4--6--2-(4)6--4--2--4- -6--4--6--2-(4)6--4--2----|
B|-6--4--6--2-(4)6--4--2--4- -6--4--6--2-(4)6--4--2----|
G|-6--5--6--3-(5)6--5--3--5- -6--5--6--3-(5)6--5--3----|
D|-8--6--8--4-(6)8--6--4--6- -8--6--8--4-(6)8--6--4--6-|
A|-8--6--8--4-(6)8--6--4--6- -8--6--8--4-(6)8--6--4--6-|
E|-6--4--6--2-(4)6--4--2--4- -6--4--6--2-(4)6--4--2--4-|

|2nd verse varies| ( distorted)
Pre Chorus (with distortion)


e|---------------------------------------------------------|
B|---------------------------------------------------------|
G|-6----3-------6-----------6-----3--------6------6--------|
D|-6-4--3--6----6--4---6----6--4--3--6-----6---6--6----6---|
A|-4-4--1--6----4--4---6----4--4--1--6-----4---6--4----6---|
E|---2-----4-------2---4-------2-----4---------4-------4---|

Chorus (with distortion)


e|--------------------------------------------------|
B|--------------------------------------------------|
G|--------6-----------6-----------6--3--------6---5-|
D|--4--6--6---6-4--6--6---6-4--6--6--3-?4--6--6---5-|
A|--4--6--4---6-4--6--4---6-4--6--4--1--4--6--4---3-|
E|--2--4------4-2--4------4-2--4--------2--4--------|

Slow part at the end (clean) (?Next thing I know’) listen for exact timing


e|------2--/4---4----------2--/4---4---4-4-4------2--/4---4--6-----|
B|------2--/4---6----------2--/4---6---6-7-6------2--/4---6--6-----|
G|------3--/5---6----------3--/5---6---6-6-6------3--/5---6--6-----|
D|------4--/6---6----------4--/6---6---6-6-6------4--/6---6--8-----|
A|------4--/6---4----------4--/4---4---4-4-4------4--/6---4--8-----|
E|--2-2-2--/4----------2-2-2--/4--------------2-2-2--/4------6-----|

(pm:^ ^ ^ ^) (let ring)

Ending (with distortion)


e|-----------------------|
B|-----------------------|
G|-----------------------|
D|--4--6--4--6--4--6--8--|
A|--4--6--4--6--4--4--6--|
E|--2--4--2--4--2--4--6--|

(let ring)

To play the this songs, including What Goes Around Comes Around by Catch 22 by ukulele, the most important basic ukulele chords to learn are C chord, D chord, G chord, and Em chord.
These set you up to play a a lot of songs, and each of them is easy to learn.

If you are searching for Beguile the Time ukulele chords, you’ve visit to the right site.
You can play versatile instrument Beguile the Time using ukulele or guitar.
This song by Catch 22 can also be played by that instruments.
=

Beguile the Time chords has rhythm and included in Dinosaur Sounds (2003) album.
You can also get another musical genres, including jazz ukulele chords, country music ukulele chords, pop ukulele chords, world music ukulele chords, and rock ukulele chords here.

Beguile the Time by Catch 22 Ukulele Chords

Regular Tuning:

Intro:
G C G C G C C?

Verse I:
If I could stay mad enough maybe I’d leave
but you have to understand this runs twenty-two years deep.
Everyone wants it all. Everyone needs a place.
You can destroy or you can create.
All I know is all that I know
and I know we all just beguile the time.
But it all catches up and it’s all so fucked up.
And only time will tell.

Chorus:
Oh, how it echoes.
Oh, when it echoes.
It hits like a ton of feathers, when it echoes.

Bridge: Same as chorus

Verse II:
Common ground can’t be found
from atop a hill looking down. Look around.
Take me to sleep. C’mon put me to weep.
Can’t you see that you’ve given your souls up for keeps?

Chorus:
Bridge:

Yeah but it all catches up and it’s all so fucked up.
Take me to sleep. C’mon put me to weep.
Can’t you see that you’ve given your souls up for keeps?
And only time will tell.
We send in poor people to fight other poor people.
We send in our brothers and sisters
and daughters and sons. There is no difference.
We send in to kill
while we sit on our asses and watch green screens infotain all day long.
It hits like a ton of feathers, when it echoes.

C?
e|-0-
H|-1
G|-0-
D|-0-
A|-3-
E|—

To play the most songs, including Beguile the Time by Catch 22 by ukulele, the most important basic ukulele chords to learn are C chord, D chord, G chord, and Em chord.
These set you up to play a ton of songs, and each of them is easy to master.