If you are searching for Tonight in Flames ukulele chords, you’ve come to the right place.
You can play versatile instrument Tonight in Flames using ukulele or guitar.
This song by Cradle of Filth can also be played by that instruments.
=

Tonight in Flames chords has rhythm and included in Thornography (2006) album.
You can also get another musical style, including jazz ukulele chords, country music ukulele chords, pop ukulele chords, world music ukulele chords, and rock ukulele chords here.

Tonight in Flames by Cradle of Filth Ukulele Chords


C R A D L E O F F I L T H

[-]
T O N I G H T I N F L A M E S

THORNOGRAPHY
(c) Roadrunner Records – 2006

Tune down one full step

Tempo 166 BPM
Time Signature 4/4


-----------------------------

PADDY MCMULLAN

Version 1.1
(Corrections Outlined at Bottom of Tab)
19th November 2008


-----------------------

Tablature Symbols Used:

P.M… – Palm Mute
p – Pull-Off
h – Hammer-On
(/) – Legato Slide (Blank space indicates length of slide)
– Slide Down to/Down From (Blank space indicates length of slide)
/ – Slide Up To/Up From (Blank space indicates length of slide)
( ) – Ghost Note/Tied Note/Implied Note
T – Tapped Note
– Pinch Harmonic/Artificial Harmonic
% – Whammy Bar (Articulation indicated above tab)
REST – Rest and sustain rest for duration of blank space
4t5 – Trill
2b3 – Bend
2b3r2 – Bend, then release
x – Muted Note/Dead Note

Intro: Guitars 1 & 2 with Heavy Distortion (Play 4 times)

3/4 bend up, then release


||----------------------|------------------------|----------------------|
||----------------------|------------------------|----------------------|
||----------------------|------------------------|----------------------|
||--2-------------------|--3---------------------|--2-------------------|
||--2----2--2-----------|--3--------------------|--2----2--2-----------|
||--0----0--0-----------|--1--------1--3 b r--1--|--0----0--0-----------|

P.M. ….


|------------------------| |
|------------------------| |
|------------------------||
|--3---------------------||
|--3--------3------------| |
|--1-----------4--1 h 3--| |

Riff 1a: Guitars 1 & 2 (Play 4 times)


||------------------------|--------------------------| |
||------------------------|--------------------------| |
||------------------------|--------------------------||
||------------------------|--------------------------||
||--4----4--4----4--4--4--|--3----3--3--3--(3)-3--5--| |
||--2----2--2----2--2--2--|--1----1--1--0 h 1--1--3--| |

Riff 1b: Guitar 3 with Heavy Distortion (Play once)


||------------------------|----------------------------|
||------------------------|----------------------------|
||-------6-----6~~-----6--|-----7--6 h 7-----7--6 h 7--|
||----------9-------------|---------------6------------|
||--9---------------------|--8-------------------------|
||------------------------|----------------------------|
|------------------------|--------------------------|
|------------------------|--------------------------|
|-------6-----6~~-----6--|-----7--6--7~~---6--------|
|----------9-------------|--------------------9~~---|
|--9---------------------|--8-----------------------|
|------------------------|--------------------------|
|------------------------|----------------------------|
|------------------------|----------------------------|
|-------6-----6~~-----6--|-----7--6 h 7-----7--6 h 7--|
|----------9-------------|---------------6------------|
|--9---------------------|--8-------------------------|
|------------------------|----------------------------|
|------------------------|---------------------------||
|------------------------|------------------6--5--6--||
|-------6-----6~~-----6--|-----7--6--7~--5-----------||
|----------9-------------|---------------------------||
|--9---------------------|--8------------------------||
|------------------------|---------------------------||
|-----------------------||
|--5~~---- -----------||
|-----------------------||
|-----------------------||
|-----------------------||
|-----------------------||

Verse: Guitars 1 & 2 (Play twice) ( Tempo 170 BPM )


||---------------------------|-------------------------------|
||---------------------------|--------------------R----------|
||---------------------------|--------------------E----------|
||--(97)--------------------|--(97)-----(9/10)--S--(109)--|
||--(75)--2--2--2--2--2--2--|--(75)-----(7/8 )--T--(8 7)--|
||---------0--0--0--0--0--0--|---------0---------------------|

……………. …


|---------------------------|---------------------------------|
|---------------------------|----------------------R----------|
|---------------------------|----------------------E----------|
|--(97)--------------------|--(109)-----(10/12)--S--(109)--|
|--(75)--2--2--2--2--2--2--|--(8 7)-----(8 /10)--T--(8 7)--|
|---------0--0--0--0--0--0--|----------0----------------------|

……………. …


|---------------------------|-------------------------------|
|---------------------------|--------------------R----------|
|---------------------------|--------------------E----------|
|--(97)--------------------|--(9/7)-----(9/10)--S--(109)--|
|--(75)--2--2--2--2--2--2--|--(7/5)-----(7/8 )--T--(8 7)--|
|---------0--0--0--0--0--0--|---------0---------------------|

……………. …


|---------------------------|--------------------------------| |
|---------------------------|--------------------------------| |
|---------------------------|--------------------------------||
|--(97)--------------------|-------------12----12--12 10--||
|--(75)--2--2--2--2--2--2--|--(109)-----10----10--10 8---| |
|---------0--0--0--0--0--0--|--(8 7)--0---------------------| |

……………. …

Pre-Chorus A: Guitar 1 (Play once)


||----------------------|-------------------------|
||----------------------|-------------------------|
||----------------------|--7~~-------7--10--9--7--|
||----------------------|-------------------------|
||--5~~-----------5--8--|-------------------------|
||----------------------|-------------------------|


|-----------------------|---------------------------------|
|-----------------------|---------------------------------|
|-----------------------|--12--10--9--10--9h 10p 9--7--9--|
|--8~~------------- --|---------------------------------|
|-----------------------|---------------------------------|
|-----------------------|---------------------------------|


|----------------------|-------------------------|--------------------|
|----------------------|-------------------------|--------------------|
|----------------------|--7~~-------7--10--9--7--|--------------------|
|----------------------|-------------------------|--8~~---------------|
|--5~~-----------5--8--|-------------------------|--------------------|
|----------------------|-------------------------|--------------------|

8 9


|--------------------------------|----------------------|
|--10 p 8------8-----------------|----------------------|
|----------10-----10 p 9--10--9--|----------------------|
|--------------------------------|----------------------|
|--------------------------------|--5~~-----------5--8--|
|--------------------------------|----------------------|

10 11


|-------------------------|-----------------------|
|-------------------------|-----------------------|
|--7~~-------7--10--9--7--|-----------------------|
|-------------------------|--8~-------------- --|
|-------------------------|-----------------------|
|-------------------------|-----------------------|


|---------------------------------|----------------------|
|---------------------------------|----------------------|
|--12--10--9--10--9h 10p 9--7--9--|----------------------|
|---------------------------------|----------------------|
|---------------------------------|--5~~-----------5--8--|
|---------------------------------|----------------------|


|-------------------------|---------------------------|
|-------------------------|---------------------------|
|--7~~-------7--10--9--7--|---------------------------|
|-------------------------|--8~~--- p0---------------|
|-------------------------|---------------------------|
|-------------------------|-------------11 --------|


|----------------------------||
|----------------------------||
|----------------------------||
|----------------------------||
|--2--2--2-2-2--2--2--2-2-2--||
|--0--0--0-0-0--0--0--0-0-0--||

……………………

Pre-Chorus B: Guitar 2 (Play once)


||----------------------|----------------------|-------------------|
||----------------------|----------------------|-------------------|
||----------------------|----------------------|-------------------|
||----------------------|--7~~-----------8--7--|--5~~--------------|
||--5~~-----------5--8--|----------------------|-------------------|
||----------------------|----------------------|-------------------|
|----------------------------------| |
|----------------------------------| |
|----------------------------------|| X 3
|--10--8--7--8--7h 8p (75)--7--5--||
|----------------------------------| |
|----------------------------------| |
||----------------------|----------------------|
||----------------------|----------------------|
||----------------------|----------------------|
||----------------------|--7~~-----------8--7--|
||--5~~-----------5--8--|----------------------|
||----------------------|----------------------|
|-------------------------|----------------------------||
|-------------------------|----------------------------||
|-------------------------|----------------------------||
|-------------14 -----|----------------------------|| X 1
|--5~~--------14 -----|--2--2--2-2-2--2--2--2-2-2--||
|-------------12 -----|--0--0--0-0-0--0--0--0-0-0--||

……………………

Chorus 1a: Guitar 1 (Play once) ( Tempo 85 BPM )


||-------------------------------|------------------------------|
||-------------------------------|------------------------------|
||-------------------------------|--------------4~~-------------|
||--2--5--4--5--5/7--5--4h 5-5~~-|--2--5--4--5------5--4h 5-5~~-|
||-------------------------------|------------------------------|
||-------------------------------|------------------------------|
|-------------------------------|------------------------------|
|-------------------------------|------------------------------|
|-------------------------------|--4--2--------5--4--4t5-------|
|--2--5--4--5--5/7--5--4h 5-5~~-|--------5--2--------------5-4-|
|-------------------------------|------------------------------|
|-------------------------------|------------------------------|
|-------------------------------|------------------------------|
|-------------------------------|------------------------------|
|-------------------------------|--------------4~~-------------|
|--2--5--4--5--5/7--5--4h 5-5~~-|--2--5--4--5------5--4h 5-5~~-|
|-------------------------------|------------------------------|
|-------------------------------|------------------------------|
|-------------------------------|-------------------------------||
|-------------------------------|-------------------------------||
|-------------------------------|--4--2--------5--4--2p 0-b3-||
|--2--5--4--5--5/7--5--4h 5-5~~-|--------5--2-------------------||
|-------------------------------|-------------------------------||
|-------------------------------|-------------------------------||

Chorus 1b: Guitar 2 (Play once)


||-------------------------------|--------------------------------|
||-------------------------------|--------------------------------|
||-------------------------------|--------------~~-------------|
||--2--5--4--5--5/7--5--4h 5-5~~-|--2--5--4--5--------5--4h 5-5~~-|
||-------------------------------|--------------------------------|
||-------------------------------|--------------------------------|
|-------------------------------|------------------------------|
|-------------------------------|------------------------------|
|-------------------------------|--7--5--4--2--7/9--7--5-4-2-0-|
|--2--5--4--5--5/7--5--4h 5-5~~-|------------------------------|
|-------------------------------|------------------------------|
|-------------------------------|------------------------------|
|-------------------------------|--------------------------------|
|-------------------------------|--------------------------------|
|-------------------------------|--------------~~-------------|
|--2--5--4--5--5/7--5--4h 5-5~~-|--2--5--4--5--------5--4h 5-5~~-|
|-------------------------------|--------------------------------|
|-------------------------------|--------------------------------|
|-------------------------------|--------------------------------||
|-------------------------------|--------------------------------||
|-------------------------------|--7--5--4--2--7/9--7--5-4-~~-||
|--2--5--4--5--5/7--5--4h 5-5~~-|--------------------------------||
|-------------------------------|--------------------------------||
|-------------------------------|--------------------------------||

Guitars 1 & 2 play the Verse twice ( Tempo 174 BPM )

Guitars 1 & 2 play the Pre-Chorus once, replacing the 2nd last bar with this:

(Guitar 1 only)


||---------------------------||
||---------------------------||
||---------------------------||
||--8~~-------p0-------------||
||---------------------------||
||---------------13 ------||

Chorus 2a: Guitar 1 (Play once) ( Tempo 85 BPM )


||-------------------------------|------------------------------|
||-------------------------------|------------------------------|
||-------------------------------|--------------4~~-------------|
||--2--5--4--5--5/7--5--4h 5-5~~-|--2--5--4--5------5--4h 5-5~~-|
||-------------------------------|------------------------------|
||-------------------------------|------------------------------|
|-------------------------------|--------------------------------|
|-------------------------------|--------------------------------|
|-------------------------------|--4--2--------5--4--4t5---------|
|--2--5--4--5--5/7--5--4h-5-5~~-|--------5--2--------------5--4--|
|-------------------------------|--------------------------------|
|-------------------------------|--------------------------------|

….


|-------------------------------|------------------------------|
|-------------------------------|------------------------------|
|-------------------------------|--------------4~~-------------|
|--2--5--4--5--5/7--5--4h 5-5~~-|--2--5--4--5------5--4h 5-5~~-|
|-------------------------------|------------------------------|
|-------------------------------|------------------------------|
|-------------------------------|-----------------------------||
|-------------------------------|---------------------7-5-7~~-||
|-------------------------------|--4--2--------5--4~~---------||
|--2--5--4--5--5/7--5--4h 5-5~~-|--------5--2-----------------||
|-------------------------------|-----------------------------||
|-------------------------------|-----------------------------||

Chorus 2b: Guitar 2 (Play once)


||--------------------------------|--------------------------------|
||--------------------------------|--------------------------------|
||--------------------------------|--------------~~-------------|
||--2--5--4--5--5/7~~-5--4h 5-5~~-|--2--5--4--5--------5--4h 5-5~~-|
||--------------------------------|--------------------------------|
||--------------------------------|--------------------------------|
|-------------------------------|------------------------------|
|-------------------------------|------------------------------|
|-------------------------------|--7--5--4--2--7/9--7--5-4-2-0-|
|--2--5--4--5--5/7--5--4h 5-5~~-|------------------------------|
|-------------------------------|------------------------------|
|-------------------------------|------------------------------|
|-------------------------------|--------------------------------|
|-------------------------------|--------------------------------|
|-------------------------------|--------------~~-------------|
|--2--5--4--5--5/7--5--4h 5-5~~-|--2--5--4--5--------5--4h 5-5~~-|
|-------------------------------|--------------------------------|
|-------------------------------|--------------------------------|
|-------------------------------|---------------------------------||
|-------------------------------|---------------------------------||
|-------------------------------|--7--5--4--2--7/9--7--11p 9-11~~-||
|--2--5--4--5--5/7--5--4h 5-5~~-|---------------------------------||
|-------------------------------|---------------------------------||
|-------------------------------|---------------------------------||

Guitars 1, 2 & 3 play Riff 1, with each guitar ending with the following:

Guitar 1 & 2:


||----------------------||
||----------------------||
||----------------------||
||--7------ ---------||
||--5------ ---------||
||----------------------||

Guitar 3:


||-----------------------||
||-----------------------||
||--7~~--- -----------||
||-----------------------||
||-----------------------||
||-----------------------||

During the repeat of Riff 1 there are 2 more guitars providing lead fills, which
are tabbed below:

Fill 1:


||------------------------|-------------------------|
||--7~~-------~~-------|-(7)-------~~---8~~---|
||------------------------|-------------------------|
||------------------------|-------------------------|
||------------------------|-------------------------|
||------------------------|-------------------------|
|------------------------|----------------------||
|--7~~-------~~-------|-(7)------------------||
|------------------------|-----------7--6--4----||
|------------------------|----------------------||
|------------------------|----------------------||
|------------------------|----------------------||

Fill 2:

With whammy bar vibrato


||--------------------|--------------------|------------------------||
||--7~~------7~~------|--8~~------8~~------|--~~------~~------||
||--------------------|--------------------|------------------------||
||--------------------|--------------------|------------------------||
||--------------------|--------------------|------------------------||
||--------------------|--------------------|------------------------||

Rest for 34 Bars

Guitars 1 & 2 play the Intro 4 times

Guitars 1, 2 & 3 play Riff 1

Guitar Solo 1: Guitar 4 with Heavy Distortion (Play once)

Guitars 1 & 2 play the verse riff twice during the guitar solos


||--15-----15-----15----15b16- --|----------------------------------|
||--15b17--15b17--15b (17)--- --|----------------------12----------|
||---------------------------------|------------------12------12------|
||---------------------------------|--------------14--------------14--|
||---------------------------------|----------14----------------------|
||---------------------------------|--12--15--------------------------|

…………..


|----------------------------------|-----------------------------------|
|----------------------------------|-(15/20)-19------------------------|
|--12--11------12--11------11------|-------------17--16~~-- ----------|
|----------------------------------|--------------------------------14-|
|----------14----------14------14--|-----------------------------------|
|----------------------------------|-----------------------------------|
|-------------------------------------------------|
|-------------------------------------------------|
|-----------------------------------------------x-|
|--14-14-14-12-12-12-12-12-15-15-15-15-14-14-14---|
|-------------------------------------------------|
|-------------------------------------------------|

|___3____| |___3____| % Dive down 6 steps


|--------------------------------------------------|-------------------|
|--------------------------------------------------|-------------------|
|--12-12-12-12-10-10-10-10-14--14--14--12--12--12--|-------------------|
|--------------------------------------------------|--%----------------|
|--------------------------------------------------|--0----------------|
|--------------------------------------------------|--0----------------|
|---------------------------------------------------||
|---------------------------------------------------||
|---------------------------------------------------||
|--------------------12-14-(14/17)----(16b19r16)~~--||
|-----------12-14-15--------------------------------||
|--12-14-15-----------------------------------------||

Guitar Solo 2: Guitar 5 with Heavy Distortion (Play once)

The first bar of this solo is an overlap of the last bar of the Guitar Solo 1


||----------------------------------------------|
||----------------------------------------------|
||----------------------------------------------|
||--------------------17--(17/21)----19b21r19---|
||-----------15-17-19---------------------------|
||--15-17-19------------------------------------|
|---------------------------------------------------|
|---------------------------------------------------|
|---------------------------------------------9--9--|
|---------------------------------------------x--x--|
|--b8--b8----b8r7--b8r7--b8r7--7--7--|
|---------------------------------------------------|
|-----------------------------------------|---------------------------|
|--12h13----12---10--(129)---10---(6/10)-|--105 b 6r5~~--- --0 / |
|-----------------------------------------|---------------------------|
|-----------------------------------------|---------------------------|
|-----------------------------------------|---------------------------|
|-----------------------------------------|---------------------------|
|--------------------------------------|--------------------------|
|--5-6h 8-6----------------------------|--------------------x-----|
|-----------7-5-4---4h 5-4-------------|--------------------x-----|
|-----------------7--------7-5---------|--------------------x-----|
|------------------------------8-(75)-|-(5/7 2)b3r2~~--7--7--|
|--------------------------------------|--------------------------|

….


|------------------------------|
|------------------------------|
|------------------------------|
|------7--(7/12)--10~~-----14--|
|--7---------------------------|
|------------------------------|

T T


|-----------12h 15-19p 15h 19p 15-19/20-17--------------------|
|--------12--------------------------------18-----------------|
|-----12--------------------------------------17--------------|
|--14--------------------------------------------19-----------|
|---------------------------------------------------20-19h 20-|
|-------------------------------------------------------------|
|-----------------------------------|--------------------|
|-----------------------------------|--------------------|
|---------------12----12--(11 7)--|--7~~---------------|
|-----------14----------------------|--------------------|
|--(1914)--------------------------|--------------------|
|-----------------------------------|--------------------|
|---------------------||
|---------------------||
|--(7)~~------- ----||
|---------------------||
|---------------------||
|---------------------||

Guitars 1 & 2 play the Pre-Chorus once

Guitars 1 & 2 play Chorus 2 once (Tempo 85 BPM )

Outro A: Guitar 1 (Play once)


||------------------------------------|----------------------------------|
||------------------------------------|----------------------------------|
||------------------------------------|------------------4-4-------------|
||--2-2-5-5-4-4-5-5-5/7-7-5-5-4-5-5-5-|--2-2-5-5-4-4-5-5-----5-5-4-4-5-5-|
||------------------------------------|----------------------------------|
||------------------------------------|----------------------------------|
|------------------------------------|-------------------------------------|
|------------------------------------|-------------------------------------|
|------------------------------------|--4-4-2-2---------5-5-4-4-4t5--------|
|--2-2-5-5-4-4-5-5-5/7-7-5-5-4-5-5-5-|----------5-5-2-2---------------5--0-|
|------------------------------------|-------------------------------------|
|------------------------------------|-------------------------------------|


|--------(0)-(0)-------------------------------------(0)-------------(0)-|
|------------------------------------------------------------------------|
|--0-x-0--4---4--4-4-2-2-2-2-4-4-4-4-5-5-5-5-4-4-4-4--2--x-2-2-4-4-4--x--|
|------------------------------------------------------------------------|
|------------------------------------------------------------------------|
|------------------------------------------------------------------------|
|----------------------------------0-------------------------------|
|----------------------------------3-3-3-x-------------------------|
|--0-0-0-0-4-4-4-4-2-2-2-2-4-4-4-4---------4-4-4-4-2-2-2-2-4-4-4-4-|
|------------------------------------------------------------------|
|------------------------------------------------------------------|
|------------------------------------------------------------------|
|------------------------------------------------------------------|
|------------------------------------------------------------------|
|--0-0-0-0-4-4-4-4-2-2-2-2-4-4-4-4-5-5-5-5-4-4-4-4-2-2-2-2-4-4-4-x-|
|------------------------------------------------------------------|
|------------------------------------------------------------------|
|------------------------------------------------------------------|
|---------------------------------|-----------------------||
|---------------------------------|-----------------------||
|--4--2--------4/5--4--2-0-2p (0)-|--9-- --------------||
|--------5--2---------------------|--9-- --------------||
|---------------------------------|--7-- --------------||
|---------------------------------|-----------------------||

Outro B: Guitar 2 (Play once)


||------------------------------------|----------------------------------|
||------------------------------------|----------------------------------|
||------------------------------------|------------------4-4-------------|
||--2-2-5-5-4-4-5-5-5/7-7-5-5-4-4-5-5-|--2-2-5-5-4-4-5-5-----5-5-4-4-5-5-|
||------------------------------------|----------------------------------|
||------------------------------------|----------------------------------|
|------------------------------------|
|------------------------------------|
|------------------------------------|
|--2-2-5-5-4-4-5-5-5/7-7-5-5-4-4-5-5-|
|------------------------------------|
|------------------------------------|

|__3__|


|-----------------------------------------|
|-----------------------------------------|
|--7-7-5-5-4-4-2-2-9-9-7-7-5-4h 5p 4 2-0-|
|-----------------------------------------|
|-----------------------------------------|
|-----------------------------------------|
|--------------------------------------------------------------------|
|--------------------------------------------------------------------|
|--------------------------------------------------------------------|
|--2-2-2-2-5-5-5-5-4-4-4-4-5-5-5-5-5/7-7-7-7-5-5-5-5-4-4-4-4-5-5-5-5-|
|--------------------------------------------------------------------|
|--------------------------------------------------------------------|
|------------------------------------------------------------------|
|------------------------------------------------------------------|
|----------------------------------4-4-4-4-------------------------|
|--2-2-2-2-5-5-5-5-4-4-4-4-5-5-5-5---------5-5-5-5-4-4-4-4-5-5-5-5-|
|------------------------------------------------------------------|
|------------------------------------------------------------------|
|---------------------------------------------------------------------|
|---------------------------------------------------------------------|
|---------------------------------------------------------------------|
|--2-2-2-2-5-5-5-5-4-4-4-4-5-5-5-5-5/7-7-7-7-5-5-5-5-4-4-4-4 /5-5-5-5-|
|---------------------------------------------------------------------|
|---------------------------------------------------------------------|
|--------------------------------|-----------------------||
|--------------------------------|-----------------------||
|--7--5--4--2--7/9--7--5-4-~~-|--9-- --------------||
|--------------------------------|--9-- --------------||
|--------------------------------|--7-- --------------||
|--------------------------------|-----------------------||

Tab summary: Intro x 4
Riff 1a x 4 + Riff 1b x 1
Verse x 2
Pre-Chorus x 1
Chorus x 1
Verse x 2
Pre-Chorus x 1
Chorus x 1
Riff 1a x 4 + Riff 1b x 1
Intro x 4
Riff 1a x 4 + Riff 1b x 1
Guitar Solo 1 x 1
Guitar Solo 2 x 2
Pre-Chorus x 1
Chorus x 1
Outro x 1
END


-----------------------

Corrections (19/11/08):


-----------------------

Corrected the note positioning in the Pre-Chorus riffs.

To play the most songs, including Tonight in Flames by Cradle of Filth by ukulele, the most important basic ukulele chords to learn are C chord, D chord, G chord, and Em chord.
These set you up to play a a lot of songs, and each of them is easy to learn.

If you are looking for Nemesis ukulele chords, you already come to the best place.
You can play versatile instrument Nemesis using ukulele or guitar.
This song by Cradle of Filth can also be played by that instruments.
=

Nemesis chords has rhythm and included in Nymphetamine (2004) album.
You can also get another musical genres, including jazz ukulele chords, country music ukulele chords, pop ukulele chords, world music ukulele chords, and rock ukulele chords here.

Nemesis by Cradle of Filth Ukulele Chords


D|-------0---0-0---------3---3-3---------0---0-0--------0---0-0--|
A|-------0---0-0---------4---4-4---------0---0-0--------0---0-0--|
F|-------0---0-0---------5---5-5---------0---0-0--------0---0-0--|
C|-----------------5---------------------------------------------|
G|-2---------------3---------------3---------------3-------------|
D|-0---------------3---------------4---------------4-------------|


D|---------------------------------------------------------------|
A|---------------------------------------------------------------|
F|/9~---------11--12~---------11--8~----------------------------|
C|--------------------------------------------9--6~-------------|
G|---------------------------------------------------------------|
D|---------------------------------------------------------------|


D|-------0---0-0---------3---3-3---------0--------------0-----0--|
A|-------0---0-0---------4---4-4---------0--------------0-----0--|
F|-------0---0-0---------5---5-5---------0--------------0-----0--|
C|-----------------5---------------------------------------------|
G|-2---------------3---------------3-----------3----3------3-----|
D|-0---------------3---------------4-----------4----4------4-----|


D|---------------------------------------------------------------|
A|---------------------------------------------------------------|
F|/9~---------11--12~---------11--8~----------------------------|
C|--------------------------------------------9--6~-------------|
G|---------------------------------------------------------------|
D|---------------------------------------------------------------|


D|-------0---0-0---------3---3-3---------0---0-0--------0---0-0--|
A|-------0---0-0---------4---4-4---------0---0-0--------0---0-0--|
F|-------0---0-0---------5---5-5---------0---0-0--------0---0-0--|
C|-----------------5---------------------------------------------|
G|-2---------------3---------------3---------------3-------------|
D|-0---------------3---------------4---------------4-------------|

0:22


D|-------------------------------------------------------------------------|
A|-------------------------------------------------------------------------|
F|-------------------------------------------------------------------------|
C|-------------------------------------------------------------------------|
G|-7--7--7--7--9-10--9--9--9--9-10--9--7--7--7--7--9-10--9--9--9--9-10--9--|
D|-0--0--0--0--0--0--0--0--0--0--0--0--0--0--0--0--0--0--0--0--0--0--0--0--|
D|-------------------------------------------------------------------------|
A|-------------------------------------------------------------------------|
F|-------------------------------------------------------------------------|
C|-------------------------------------------------------------------------|
G|-7--7--7--7--9-10--9--9--9--9-10--9--7--7--7--7--9-10--9--9--9--9-10--9--|
D|-8--8--8--8--8--8--8--8--8--8--8--8--8--8--8--8--8--8--8--8--8--8--8--8--|
D|----------------------------------------------------------|
A|----------------------------------------------------------|
F|----------------------------------------------------------|
C|-7--7----9-10--9---9--9-10--9--7--7----9-10--9---9--9-10--|
G|-0--0----0--0--0---0--0--0--0--0--0----0--0--0---0--0--0--|
D|----------------------------------------------------------|
D|---------------------------------------------|
A|---------------------------------------------|
F|---------------------------------------------|
C|-5-------5--5-------5--4--4------------------|
G|-5-------5--5-------5--2--2-2-2-2-2--2--2----|
D|-3--3-3--3--3--3-3--3--2--2-2-2-2-2--2--2----|

0:38


D|-------------------------------------------------------------------------|
A|-------------------------------------------------------------------------|
F|-------------------------------------------------------------------------|
C|-------------------------------------------------------------------------|
G|-7--7--7--7--9-10--9--9--9--9-10--9--7--7--7--7--9-10--9--9--9--9-10--9--|
D|-0--0--0--0--0--0--0--0--0--0--0--0--0--0--0--0--0--0--0--0--0--0--0--0--|
D|-------------------------------------------------------------------------|
A|-------------------------------------------------------------------------|
F|-------------------------------------------------------------------------|
C|-------------------------------------------------------------------------|
G|-7--7--7--7--9-10--9--9--9--9-10--9--7--7--7--7--9-10--9--9--9--9-10--9--|
D|-8--8--8--8--8--8--8--8--8--8--8--8--8--8--8--8--8--8--8--8--8--8--8--8--|
D|--------------------------------------------------------------|
A|--------------------------------------------------------------|
F|--------------------------------------------------------------|
C|-7~-----7--9-10--9~------9-10--9--7~------7--9-10--9~---9-10--|
G|-0------0--0--0--0-------0--0--0--0-------0--0--0--0----0--0--|
D|--------------------------------------------------------------|
D|---------------------------------------------|
A|---------------------------------------------|
F|---------------------------------------------|
C|-5-------5--5-------5--4---------------------|
G|-5-------5--5-------5--2--2-2-2-2-2--2--2----|
D|-3--3-3--3--3--3-3--3--2--2-2-2-2-2--2--2----|

0:54

L


D|--------------------------------------------------------|
A|--------------------------------------------------------|
F|-9-9-9-9-9-9-------------9-9-9-9-9-9-11-11-11-11-11-11--|
C|-------------9-9-9-9-9-9--------------------------------|
G|--------------------------------------------------------|
D|--------------------------------------------------------|

R


D|-------------------------------------------------------------------------|
A|-12-12-12-12-12-12-10-10-10-10-10-10-12-12-12-12-12-12-13-13-13-13-13-13-|
F|-------------------------------------------------------------------------|
C|-------------------------------------------------------------------------|
G|-------------------------------------------------------------------------|
D|-------------------------------------------------------------------------|

L


D|--------------------------------------------------------|
A|--------------------------------------------------------|
F|-9-9-9-9-9-9-------------9-9-9-9-9-9-11-11-11-11-11-11--|
C|-------------9-9-9-9-9-9--------------------------------|
G|--------------------------------------------------------|
D|--------------------------------------------------------|

R


D|-------------------------------------------------------------------------|
A|-12-12-12-12-12-12-10-10-10-10-10-10-12-12-12-12-12-12-13-13-13-13-13-13-|
F|-------------------------------------------------------------------------|
C|-------------------------------------------------------------------------|
G|-------------------------------------------------------------------------|
D|-------------------------------------------------------------------------|

L


D|-------------------------------------------------------------------|
A|-------------------------------------------------------------------|
F|-12-12-12-12-12-12-------------------9-9-9-9-9-9-11-11-11-11-11-11-|
C|-------------------10-10-10-10-10-10-------------------------------|
G|-------------------------------------------------------------------|
D|-------------------------------------------------------------------|

R


D|-------------------------------------------------------------------------|
A|-15-15-15-15-15-15-12-12-12-12-12-12-13-13-13-13-13-13-10-10-10-10-10-10-|
F|-------------------------------------------------------------------------|
C|-------------------------------------------------------------------------|
G|-------------------------------------------------------------------------|
D|-------------------------------------------------------------------------|

L


D|-------------------------------------------------------------------|
A|-------------------------------------------------------------------|
F|-12-12-12-12-12-12-------------------9-9-9-9-9-9-11-11-11-11-11-11-|
C|-------------------10-10-10-10-10-10-------------------------------|
G|-------------------------------------------------------------------|
D|-------------------------------------------------------------------|

R


D|-------------------------------------------------------------------------|
A|-12-12-12-12-12-12-13-13-13-13-13-13-10-10-10-10-10-10-12-12-12-12-12-12-|
F|-------------------------------------------------------------------------|
C|-------------------------------------------------------------------------|
G|-------------------------------------------------------------------------|
D|-------------------------------------------------------------------------|

L


D|-------------------------------------------------------------------|
A|-------------------------------------------------------------------|
F|-12-12-12-12-12-12-------------------9-9-9-9-9-9-------------------|
C|-------------------12-12-12-12-12-12-------------10-10-10-10-10-10-|
G|-------------------------------------------------------------------|
D|-------------------------------------------------------------------|

R


D|-------------------------------------------------------------------|
A|-10-10-10-10-10-10-------------------------------------------------|
F|-------------------11-11-11-11-11-11-12-12-12-12-12-12-9-9-9-9-9-9-|
C|-------------------------------------------------------------------|
G|-------------------------------------------------------------------|
D|-------------------------------------------------------------------|

L


D|-------------------------------------------------------------------|
A|-------------------------------------------------------------------|
F|-------------------9-9-9-9-9-9-------------------------------------|
C|-12-12-12-12-12-12-------------10-10-10-10-10-10-12-12-12-12-10-10-|
G|-------------------------------------------------------------------|
D|-------------------------------------------------------------------|

R


D|-------------------------------------------------------------------------|
A|-------------------------------------10-10-10-10-10-10-12-12-12-12-12-12-|
F|-11-11-11-11-11-11-12-12-12-12-12-12-------------------------------------|
C|-------------------------------------------------------------------------|
G|-------------------------------------------------------------------------|
D|-------------------------------------------------------------------------|

L


D|-----------------------------------------------------------------------------------------|
A|-----------------------------------------------------------------------------------------|
F|-----------------------------------------------------------------------------------------|
C|-9-9-9-9-9-9-------------------------------------------------------9-9-9-9-9-9-----------|
G|-------------10-10-10-10-10-10-10-10-10-10-10-10-12-12-12-12-12-12--------------9-10-9~--|
D|-----------------------------------------------------------------------------------------|

R


D|-----------------------------------------------------------------------------------------|
A|-12-12-12-12-12-12-12-12-12-12-12-12-12-12-12-12-13-12-10-12-12-12-12-12-12-13-12-10-12~~|
F|-----------------------------------------------------------------------------------------|
C|-----------------------------------------------------------------------------------------|
G|-----------------------------------------------------------------------------------------|
D|-----------------------------------------------------------------------------------------|

1:09


D|-------------------------------------------------------------------------|
A|-------------------------------------------------------------------------|
F|-------------------------------------------------------------------------|
C|-------------------------------------------------------------------------|
G|-7--7--7--7--9-10--9--9--9--9-10--9--7--7--7--7--9-10--9--9--9--9-10--9--|
D|-0--0--0--0--0--0--0--0--0--0--0--0--0--0--0--0--0--0--0--0--0--0--0--0--|
D|-------------------------------------------------------------------------|
A|-------------------------------------------------------------------------|
F|-------------------------------------------------------------------------|
C|-------------------------------------------------------------------------|
G|-7--7--7--7--9-10--9--9--9--9-10--9--7--7--7--7--9-10--9--9--9--9-10--9--|
D|-8--8--8--8--8--8--8--8--8--8--8--8--8--8--8--8--8--8--8--8--8--8--8--8--|
D|----------------------------------------------------------|
A|----------------------------------------------------------|
F|----------------------------------------------------------|
C|-7--7----9-10--9---9--9-10--9--7--7----9-10--9---9--9-10--|
G|-0--0----0--0--0---0--0--0--0--0--0----0--0--0---0--0--0--|
D|----------------------------------------------------------|
D|---------------------------------------------|
A|---------------------------------------------|
F|---------------------------------------------|
C|-5-------5--5-------5--4---------------------|
G|-5-------5--5-------5--2--2-2-2-2-2--2--2----|
D|-3--3-3--3--3--3-3--3--2--2-2-2-2-2--2--2----|

1:24


D|--------------------------------------------------------------------------------------|
A|--------------------------------------------------------------------------------------|
F|---^----------------------------------^---------------------------------------__------|
C|-10-9------9-----------^------------10-9------9------------^----^------------/ -----|
G|-------12-----12--10--9-10--9~------------12------12--10--9-10-9-10-9-10-12-9-10-12---|
D|--------------------------------------------------------------------------------------|


D|--------------------------------------------------------------------------------------|
A|--------------------------------------------------------------------------------------|
F|--------------------------------------------------------------------------------------|
C|-----------------------------4--------5--------------------8------------------------8-|
G|--2--------------------------2--------3--------------------6------------------------6-|
D|--0--------------------------2--------3--------------------6------------------------6-|


D|----------------------------------------------------------------------------------|
A|------------------------------------------------------------------------)(--------|
F|---^-------------------------------------------------------------9-11-11---9-11-5-|
C|-10-9------9-----------^-------------------------9-10-12-9-10-12------------------|
G|-------12-----12--10--9-10--9~--------10-9-10-12----------------------------------|
D|----------------------------------------------------------------------------------|


D|----------------------------------------------------------------------------------|
A|----------------------------------------------------------------------------------|
F|----------------------------------------------------------------------------------|
C|-----------------------------4----------------------------------------------------|
G|--2--------------------------2--------5-------------------3---------6-------------|
D|--0--------------------------2--------3-------------------1---------4-------------|

1:34


D|--------------------------------------------------------------------------------------------------|
A|--------------------------------------------------------------------------------------------------|
F|--------------------------------------------------------------------------------------------------|
C|-5---------5----5----------------------5---------5-------------6--5--3--5--3-----3-----------3--5-|
G|-3----3333-3----3-5---------5----------3----3333-3---------3------------------6-----6--5--6-------|
D|-3----3333-3----3-3----3333-3----3-3-3-3----3333-3----3333-1--------------------------------------|

L


D|-----------------------------------------------------------------|
A|-----------------------------------------------------------------|
F|-5-5-5-5-5-5-5-5-5-5-5-5-7-7-7-7-8-8-8-8-7-7-7-7-5-5-5-5-7-7-7-7-|
C|-----------------------------------------------------------------|
G|-----------------------------------------------------------------|
D|-----------------------------------------------------------------|

R


D|---------------------------------------------------------------------------------|
A|---------------------------------------------------------------------------------|
F|-8-8-8-8-8-8-8-8-8-8-8-8-10-10-10-10-12-12-12-12-10-10-10-10-8-8-8-8-10-10-10-10-|
C|---------------------------------------------------------------------------------|
G|---------------------------------------------------------------------------------|
D|---------------------------------------------------------------------------------|

L


D|---------------------------------------------------|
A|---------------------------------------------------|
F|---------------------------------------------------|
C|-5-5-5-5-5-5-5-5-5-5-5-5-5-5-5-5-8--6--5--6--5--3--|
G|---------------------------------------------------|
D|---------------------------------------------------|

R


D|-----------------------------------------------------|
A|-----------------------------------------------------|
F|-----------------------------------------------------|
C|-8-8-8-8-8-8-8-8-8-8-8-8-8-8-8-8-12--10--8--10--8--6-|
G|-----------------------------------------------------|
D|-----------------------------------------------------|

L


D|-----------------------------------------------------------------|
A|-----------------------------------------------------------------|
F|-5-5-5-5-5-5-5-5-5-5-5-5-7-7-7-7-8-8-8-8-7-7-7-7-5-5-5-5-7-7-7-7-|
C|-----------------------------------------------------------------|
G|-----------------------------------------------------------------|
D|-----------------------------------------------------------------|

R


D|---------------------------------------------------------------------------------|
A|---------------------------------------------------------------------------------|
F|-8-8-8-8-8-8-8-8-8-8-8-8-10-10-10-10-12-12-12-12-10-10-10-10-8-8-8-8-10-10-10-10-|
C|---------------------------------------------------------------------------------|
G|---------------------------------------------------------------------------------|
D|---------------------------------------------------------------------------------|

L


D|----------------------------------------------------------------------------|
A|----------------------------------------------------------------------------|
F|----------------------------------------------------------------------------|
C|-3------------------------------------6--5--3--5--3-----3-----------3--5----|
G|-----------------------------------------------------6-----6--5--6----------|
D|----------------------------------------------------------------------------|

R


D|----------------------------------------------------------------------------|
A|----------------------------------------------------------------------------|
F|-10-10-10-10-10-10-10-10-10-10-10-10-10--8--7--8--7------7-------------7--8-|
C|-----------------------------------------------------10-----10--8--10-------|
G|----------------------------------------------------------------------------|
D|----------------------------------------------------------------------------|

1:56

L


D|-----------------------------------------------------------------|
A|-----------------------------------------------------------------|
F|-5-5-5-5-5-5-5-5-5-5-5-5-7-7-7-7-8-8-8-8-7-7-7-7-5-5-5-5-7-7-7-7-|
C|-----------------------------------------------------------------|
G|-----------------------------------------------------------------|
D|-----------------------------------------------------------------|

R


D|---------------------------------------------------------------------------------|
A|---------------------------------------------------------------------------------|
F|-8-8-8-8-8-8-8-8-8-8-8-8-10-10-10-10-12-12-12-12-10-10-10-10-8-8-8-8-10-10-10-10-|
C|---------------------------------------------------------------------------------|
G|---------------------------------------------------------------------------------|
D|---------------------------------------------------------------------------------|

L


D|---------------------------------------------------|
A|---------------------------------------------------|
F|---------------------------------------------------|
C|-5-5-5-5-5-5-5-5-5-5-5-5-5-5-5-5-8--6--5--6--5--3--|
G|---------------------------------------------------|
D|---------------------------------------------------|

R


D|-----------------------------------------------------|
A|-----------------------------------------------------|
F|-----------------------------------------------------|
C|-8-8-8-8-8-8-8-8-8-8-8-8-8-8-8-8-12--10--8--10--8--6-|
G|-----------------------------------------------------|
D|-----------------------------------------------------|

L


D|-----------------------------------------------------------------|
A|-----------------------------------------------------------------|
F|-5-5-5-5-5-5-5-5-5-5-5-5-7-7-7-7-8-8-8-8-7-7-7-7-5-5-5-5-7-7-7-7-|
C|-----------------------------------------------------------------|
G|-----------------------------------------------------------------|
D|-----------------------------------------------------------------|

R


D|---------------------------------------------------------------------------------|
A|---------------------------------------------------------------------------------|
F|-8-8-8-8-8-8-8-8-8-8-8-8-10-10-10-10-12-12-12-12-10-10-10-10-8-8-8-8-10-10-10-10-|
C|---------------------------------------------------------------------------------|
G|---------------------------------------------------------------------------------|
D|---------------------------------------------------------------------------------|

L


D|----------------------------------------------------------------------------|
A|----------------------------------------------------------------------------|
F|----------------------------------------------------------------------------|
C|-3------------------------------------6--5--3--5--3-----3-----------3--5----|
G|-----------------------------------------------------6-----6--5--6----------|
D|----------------------------------------------------------------------------|

R


D|----------------------------------------------------------------------------|
A|----------------------------------------------------------------------------|
F|-10-10-10-10-10-10-10-10-10-10-10-10-10--8--7--8--7------7-------------7--8-|
C|-----------------------------------------------------10-----10--8--10-------|
G|----------------------------------------------------------------------------|
D|----------------------------------------------------------------------------|

2:07


D|-------------------------------------------------------------------------|
A|-----------)------------------------------------)------------_-----------|
F|--3----5--5--5--3--5-------------------3----5--5--5---------/ ----------|
C|----------------------3----4---1---4-----------------3-----1-3-1---------|
G|------------------------------------------------------------------4--3---|
D|-------------------------------------------------------------------------|


D|-------------------------------------------------------------------------|
A|-------------------------------------------------------------------------|
F|-------------------------------------------------------------------------|
C|-3-----------------------------------------------------------------------|
G|-1--------------------3-----------------4------------3-------------4-----|
D|----------------------1-----------------2------------4-------------5-----|


D|------------------------------------------------------------------|
A|-------------------------------------------------10--10--11---13--|
F|-3~----------5---6---8---10--11--10~---------11-------------------|
C|------------------------------------------------------------------|
G|------------------------------------------------------------------|
D|------------------------------------------------------------------|


D|------------------------------------------------------------------|
A|------------------------------------------------------------------|
F|------------------------------------------------------------------|
C|------------------------------------------------------------------|
G|-111-111-111-111-111-111-111-111----------------------------------|
D|----------------------------------111-111-111-111-111-111-111-111-|

L


D|----------------------------------------------------------|
A|-11----------13---14-------16------13---14--13---10--11~--|
F|----------------------------------------------------------|
C|----------------------------------------------------------|
G|----------------------------------------------------------|
D|----------------------------------------------------------|

R


D|----------------------------------------------------------|
A|----------------------------------------------------------|
F|----------------------------------------------------------|
C|----------------------------------------------------------|
G|----------------------------------3------3--4----4--------|
D|-222-222-222-222-222-222-222-222--4------4--5----5--------|

2:26


D|------------------------------------------------------------------------|
A|------------------------------------------------------------------------|
F|------------------------------------------------------------------------|
C|-3--3--3-7--7-4--4--3-4---4-7--7-6--6-3--3----3-7--7-4--4--4------------|
G|-1--1--1/5--52--2--1/2---2/5--54--41--1----1/5--52--2--2------------|
D|-1--1--1/5--52--2--1/2---2/5--54--41--1----1/5--52--2--2--1~-0--3---|
D|------------------------------------------------------------------------|
A|------------------------------------------------------------------------|
F|------------------------------------------------------------------------|
C|-3--3--3-7--7-4--4--3-4---4-7--7-6--6-3--3----3-7--7-4--4--4------------|
G|-1--1--1/5--52--2--1/2---2/5--54--41--1----1/5--52--2--2------------|
D|-1--1--1/5--52--2--1/2---2/5--54--41--1----1/5--52--2--2--1~-0--3---|
D|------------------------------------------------------------------------|
A|------------------------------------------------------------------------|
F|------------------------------------------------------------------------|
C|-3--3--3-7--7-4--4--3-4---4-7--7-6--6-3--3----3-7--7-4--4--4------------|
G|-1--1--1/5--52--2--1/2---2/5--54--41--1----1/5--52--2--2------------|
D|-1--1--1/5--52--2--1/2---2/5--54--41--1----1/5--52--2--2--1~-0--3---|
D|------------------------------------------------------------------------|
A|------------------------------------------------------------------------|
F|------------------------------------------------------------------------|
C|-3--3--3-7--7-4--4--3-4---4-7--7-6--6-3--3----3-7--7-4--4--4------------|
G|-1--1--1/5--52--2--1/2---2/5--54--41--1----1/5--52--2--2------------|
D|-1--1--1/5--52--2--1/2---2/5--54--41--1----1/5--52--2--2--1~-0--3---|

2;57


D|-------0---0-0---------3---3-3---------0---0-0--------0---0-0--|
A|-------0---0-0---------4---4-4---------0---0-0--------0---0-0--|
F|-------0---0-0---------5---5-5---------0---0-0--------0---0-0--|
C|-----------------5---------------------------------------------|
G|-2---------------3---------------3---------------3-------------|
D|-0---------------3---------------4---------------4-------------|


D|---------------------------------------------------------------|
A|---------------------------------------------------------------|
F|/9~---------11--12~---------11--8~----------------------------|
C|--------------------------------------------9--6~-------------|
G|---------------------------------------------------------------|
D|---------------------------------------------------------------|


D|-------0---0-0---------3---3-3---------0---0-0--------0---0-0--|
A|-------0---0-0---------4---4-4---------0---0-0--------0---0-0--|
F|-------0---0-0---------5---5-5---------0---0-0--------0---0-0--|
C|-----------------5---------------------------------------------|
G|-2---------------3---------------3---------------3-------------|
D|-0---------------3---------------4---------------4-------------|


D|---------------------------------------------------------------|
A|---------------------------------------------------------------|
F|/9~---------11--12~---------11--8~----------------------------|
C|--------------------------------------------9--6~-------------|
G|---------------------------------------------------------------|
D|---------------------------------------------------------------|


D|-------0---0-0---------3---3-3---------0---0-0--------0---0----|
A|-------0---0-0---------4---4-4---------0---0-0--------0---0----|
F|-------0---0-0---------5---5-5---------0---0-0--------0---0----|
C|-----------------5---------------------------------------------|
G|-2---------------3---------------3---------------3-------------|
D|-0---------------3---------------4---------------4-------------|

3:20


D|-------------------------------------------------------------------------|
A|-------------------------------------------------------------------------|
F|-------------------------------------------------------------------------|
C|-------------------------------------------------------------------------|
G|-7--7--7--7--9-10--9--9--9--9-10--9--7--7--7--7--9-10--9--9--9--9-10--9--|
D|-0--0--0--0--0--0--0--0--0--0--0--0--0--0--0--0--0--0--0--0--0--0--0--0--|
D|-------------------------------------------------------------------------|
A|-------------------------------------------------------------------------|
F|-------------------------------------------------------------------------|
C|-------------------------------------------------------------------------|
G|-7--7--7--7--9-10--9--9--9--9-10--9--7--7--7--7--9-10--9--9--9--9-10--9--|
D|-8--8--8--8--8--8--8--8--8--8--8--8--8--8--8--8--8--8--8--8--8--8--8--8--|
D|--------------------------------------------------------------|
A|--------------------------------------------------------------|
F|--------------------------------------------------------------|
C|-7~-----7--9-10--9~------9-10--9--7~------7--9-10--9~---9-10--|
G|-0------0--0--0--0-------0--0--0--0-------0--0--0--0----0--0--|
D|--------------------------------------------------------------|
D|---------------------------------------------|
A|---------------------------------------------|
F|---------------------------------------------|
C|-5-------5--5-------5--4---------------------|
G|-5--5-5--5--5--5-5--5--2--2-2-2-2-2--2--2----|
D|-3--3-3--3--3--3-3--3--2--2-2-2-2-2--2--2----|

D|-------------------------------------------------------------------------|
A|-------------------------------------------------------------------------|
F|-------------------------------------------------------------------------|
C|-------------------------------------------------------------------------|
G|-7--7--7--7--9-10--9--9--9--9-10--9--7--7--7--7--9-10--9--9--9--9-10--9--|
D|-0--0--0--0--0--0--0--0--0--0--0--0--0--0--0--0--0--0--0--0--0--0--0--0--|
D|-------------------------------------------------------------------------|
A|-------------------------------------------------------------------------|
F|-------------------------------------------------------------------------|
C|-------------------------------------------------------------------------|
G|-7--7--7--7--9-10--9--9--9--9-10--9--7--7--7--7--9-10--9--9--9--9-10--9--|
D|-8--8--8--8--8--8--8--8--8--8--8--8--8--8--8--8--8--8--8--8--8--8--8--8--|
D|--------------------------------------------------------------|
A|--------------------------------------------------------------|
F|--------------------------------------------------------------|
C|-7~-----7--9-10--9~------9-10--9--7~------7--9-10--9~---9-10--|
G|-0------0--0--0--0-------0--0--0--0-------0--0--0--0----0--0--|
D|--------------------------------------------------------------|
D|---------------------------------------------|
A|---------------------------------------------|
F|---------------------------------------------|
C|-5-------5--5-------5--4---------------------|
G|-5--5-5--5--5--5-5--5--2--2-2-2-2-2--2--2----|
D|-3--3-3--3--3--3-3--3--2--2-2-2-2-2--2--2----|

3:53

L


D|--------------------------------------------------------|
A|--------------------------------------------------------|
F|-9-9-9-9-9-9-------------9-9-9-9-9-9-11-11-11-11-11-11--|
C|-------------9-9-9-9-9-9--------------------------------|
G|--------------------------------------------------------|
D|--------------------------------------------------------|

R


D|-------------------------------------------------------------------------|
A|-12-12-12-12-12-12-10-10-10-10-10-10-12-12-12-12-12-12-13-13-13-13-13-13-|
F|-------------------------------------------------------------------------|
C|-------------------------------------------------------------------------|
G|-------------------------------------------------------------------------|
D|-------------------------------------------------------------------------|

L


D|--------------------------------------------------------|
A|--------------------------------------------------------|
F|-9-9-9-9-9-9-------------9-9-9-9-9-9-11-11-11-11-11-11--|
C|-------------9-9-9-9-9-9--------------------------------|
G|--------------------------------------------------------|
D|--------------------------------------------------------|

R


D|-------------------------------------------------------------------------|
A|-12-12-12-12-12-12-10-10-10-10-10-10-12-12-12-12-12-12-13-13-13-13-13-13-|
F|-------------------------------------------------------------------------|
C|-------------------------------------------------------------------------|
G|-------------------------------------------------------------------------|
D|-------------------------------------------------------------------------|

L


D|-------------------------------------------------------------------|
A|-------------------------------------------------------------------|
F|-12-12-12-12-12-12-------------------9-9-9-9-9-9-11-11-11-11-11-11-|
C|-------------------10-10-10-10-10-10-------------------------------|
G|-------------------------------------------------------------------|
D|-------------------------------------------------------------------|

R


D|-------------------------------------------------------------------------|
A|-15-15-15-15-15-15-12-12-12-12-12-12-13-13-13-13-13-13-10-10-10-10-10-10-|
F|-------------------------------------------------------------------------|
C|-------------------------------------------------------------------------|
G|-------------------------------------------------------------------------|
D|-------------------------------------------------------------------------|

L


D|-------------------------------------------------------------------|
A|-------------------------------------------------------------------|
F|-12-12-12-12-12-12-------------------9-9-9-9-9-9-11-11-11-11-11-11-|
C|-------------------10-10-10-10-10-10-------------------------------|
G|-------------------------------------------------------------------|
D|-------------------------------------------------------------------|

R


D|-------------------------------------------------------------------------|
A|-12-12-12-12-12-12-13-13-13-13-13-13-10-10-10-10-10-10-12-12-12-12-12-12-|
F|-------------------------------------------------------------------------|
C|-------------------------------------------------------------------------|
G|-------------------------------------------------------------------------|
D|-------------------------------------------------------------------------|

L


D|-------------------------------------------------------------------|
A|-------------------------------------------------------------------|
F|-12-12-12-12-12-12-------------------9-9-9-9-9-9-------------------|
C|-------------------12-12-12-12-12-12-------------10-10-10-10-10-10-|
G|-------------------------------------------------------------------|
D|-------------------------------------------------------------------|

R


D|-------------------------------------------------------------------|
A|-10-10-10-10-10-10-------------------------------------------------|
F|-------------------11-11-11-11-11-11-12-12-12-12-12-12-9-9-9-9-9-9-|
C|-------------------------------------------------------------------|
G|-------------------------------------------------------------------|
D|-------------------------------------------------------------------|

L


D|-------------------------------------------------------------------|
A|-------------------------------------------------------------------|
F|-------------------9-9-9-9-9-9-------------------------------------|
C|-12-12-12-12-12-12-------------10-10-10-10-10-10-12-12-12-12-10-10-|
G|-------------------------------------------------------------------|
D|-------------------------------------------------------------------|

R


D|-------------------------------------------------------------------------|
A|-------------------------------------10-10-10-10-10-10-12-12-12-12-12-12-|
F|-11-11-11-11-11-11-12-12-12-12-12-12-------------------------------------|
C|-------------------------------------------------------------------------|
G|-------------------------------------------------------------------------|
D|-------------------------------------------------------------------------|

L


D|-----------------------------------------------------------------------------------------|
A|-----------------------------------------------------------------------------------------|
F|-----------------------------------------------------------------------------------------|
C|-9-9-9-9-9-9-------------------------------------------------------9-9-9-9-9-9-----------|
G|-------------10-10-10-10-10-10-10-10-10-10-10-10-12-12-12-12-12-12--------------9-10-9~--|
D|-----------------------------------------------------------------------------------------|

R


D|-----------------------------------------------------------------------------------------|
A|-12-12-12-12-12-12-12-12-12-12-12-12-12-12-12-12-13-12-10-12-12-12-12-12-12-13-12-10-12~~|
F|-----------------------------------------------------------------------------------------|
C|-----------------------------------------------------------------------------------------|
G|-----------------------------------------------------------------------------------------|
D|-----------------------------------------------------------------------------------------|

L


D|--------------------------------------------------------|
A|--------------------------------------------------------|
F|-9-9-9-9-9-9-------------9-9-9-9-9-9-11-11-11-11-11-11--|
C|-------------9-9-9-9-9-9--------------------------------|
G|--------------------------------------------------------|
D|--------------------------------------------------------|

R


D|-------------------------------------------------------------------------|
A|-12-12-12-12-12-12-10-10-10-10-10-10-12-12-12-12-12-12-13-13-13-13-13-13-|
F|-------------------------------------------------------------------------|
C|-------------------------------------------------------------------------|
G|-------------------------------------------------------------------------|
D|-------------------------------------------------------------------------|

L


D|--------------------------------------------------------|
A|--------------------------------------------------------|
F|-9-9-9-9-9-9-------------9-9-9-9-9-9-11-11-11-11-11-11--|
C|-------------9-9-9-9-9-9--------------------------------|
G|--------------------------------------------------------|
D|--------------------------------------------------------|

R


D|-------------------------------------------------------------------------|
A|-12-12-12-12-12-12-10-10-10-10-10-10-12-12-12-12-12-12-13-13-13-13-13-13-|
F|-------------------------------------------------------------------------|
C|-------------------------------------------------------------------------|
G|-------------------------------------------------------------------------|
D|-------------------------------------------------------------------------|

L


D|-------------------------------------------------------------------|
A|-------------------------------------------------------------------|
F|-12-12-12-12-12-12-------------------9-9-9-9-9-9-11-11-11-11-11-11-|
C|-------------------10-10-10-10-10-10-------------------------------|
G|-------------------------------------------------------------------|
D|-------------------------------------------------------------------|

R


D|-------------------------------------------------------------------------|
A|-15-15-15-15-15-15-12-12-12-12-12-12-13-13-13-13-13-13-10-10-10-10-10-10-|
F|-------------------------------------------------------------------------|
C|-------------------------------------------------------------------------|
G|-------------------------------------------------------------------------|
D|-------------------------------------------------------------------------|

L


D|-------------------------------------------------------------------|
A|-------------------------------------------------------------------|
F|-12-12-12-12-12-12-------------------9-9-9-9-9-9-11-11-11-11-11-11-|
C|-------------------10-10-10-10-10-10-------------------------------|
G|-------------------------------------------------------------------|
D|-------------------------------------------------------------------|

R


D|-------------------------------------------------------------------------|
A|-12-12-12-12-12-12-13-13-13-13-13-13-10-10-10-10-10-10-12-12-12-12-12-12-|
F|-------------------------------------------------------------------------|
C|-------------------------------------------------------------------------|
G|-------------------------------------------------------------------------|
D|-------------------------------------------------------------------------|

L


D|-------------------------------------------------------------------|
A|-------------------------------------------------------------------|
F|-12-12-12-12-12-12-------------------9-9-9-9-9-9-------------------|
C|-------------------12-12-12-12-12-12-------------10-10-10-10-10-10-|
G|-------------------------------------------------------------------|
D|-------------------------------------------------------------------|

R


D|-------------------------------------------------------------------|
A|-10-10-10-10-10-10-------------------------------------------------|
F|-------------------11-11-11-11-11-11-12-12-12-12-12-12-9-9-9-9-9-9-|
C|-------------------------------------------------------------------|
G|-------------------------------------------------------------------|
D|-------------------------------------------------------------------|

L


D|-------------------------------------------------------------------|
A|-------------------------------------------------------------------|
F|-------------------9-9-9-9-9-9-------------------------------------|
C|-12-12-12-12-12-12-------------10-10-10-10-10-10-12-12-12-12-10-10-|
G|-------------------------------------------------------------------|
D|-------------------------------------------------------------------|

R


D|-------------------------------------------------------------------------|
A|-------------------------------------10-10-10-10-10-10-12-12-12-12-12-12-|
F|-11-11-11-11-11-11-12-12-12-12-12-12-------------------------------------|
C|-------------------------------------------------------------------------|
G|-------------------------------------------------------------------------|
D|-------------------------------------------------------------------------|

L


D|-----------------------------------------------------------------------------------------|
A|-----------------------------------------------------------------------------------------|
F|-----------------------------------------------------------------------------------------|
C|-9-9-9-9-9-9-------------------------------------------------------9-9-9-9-9-9-----------|
G|-------------10-10-10-10-10-10-10-10-10-10-10-10-12-12-12-12-12-12--------------9-10-9~--|
D|-----------------------------------------------------------------------------------------|

R


D|-----------------------------------------------------------------------------------------|
A|-12-12-12-12-12-12-12-12-12-12-12-12-12-12-12-12-13-12-10-12-12-12-12-12-12-13-12-10-12~~|
F|-----------------------------------------------------------------------------------------|
C|-----------------------------------------------------------------------------------------|
G|-----------------------------------------------------------------------------------------|
D|-----------------------------------------------------------------------------------------|

4:41


D|--------------------------------------------------------------------------------------|
A|--------------------------------------------------------------------------------------|
F|---^----------------------------------^---------------------------------------__------|
C|-10-9------9-----------^------------10-9------9------------^----^------------/ -----|
G|-------12-----12--10--9-10--9~------------12------12--10--9-10-9-10-9-10-12-9-10-12---|
D|--------------------------------------------------------------------------------------|


D|--------------------------------------------------------------------------------------|
A|--------------------------------------------------------------------------------------|
F|--------------------------------------------------------------------------------------|
C|-----------------------------4--------5--------------------8------------------------8-|
G|--2--------------------------2--------3--------------------6------------------------6-|
D|--0--------------------------2--------3--------------------6------------------------6-|


D|----------------------------------------------------------------------------------|
A|------------------------------------------------------------------------)(--------|
F|---^-------------------------------------------------------------9-11-11---9-1

To play the most songs, including Nemesis by Cradle of Filth by ukulele, the most crucial basic ukulele chords to learn are C chord, D chord, G chord, and Em chord.
These set you up to play a many of songs, and each of them is easy to learn.

If you are searching for Dusk and Her Embrace ukulele chords, you have come to the right place.
You can play versatile instrument Dusk and Her Embrace using ukulele or guitar.
This song by Cradle of Filth can also be played by that instruments.
=

Dusk and Her Embrace chords has rhythm and included in Dusk and Her Embrace (1996) album.
You can also find other musical style, including jazz ukulele chords, country music ukulele chords, pop ukulele chords, world music ukulele chords, and rock ukulele chords here.

Dusk and Her Embrace by Cradle of Filth Ukulele Chords

Dusk and Her Embrace by CoF

Tabbed by tay

Tune down one whole step.

Riff 1

x 4


--------------------------------------------
--------------------------------------------
--------------------------------------------
-7---7-7-7-7---7-7-7-10--10-10-10-9---9-9-9-
-7---7-7-7-7---7-7-7-10--10-10-10-9---9-9-9-
-5---5-5-5-5---5-5-5-8---8--8--8--7---7-7-7-

Riff 2

x 3


|-------------------|
|-5---------5---5-8-|
|---7-5-------7-----|
|-------7-----------|
|-------------------|
|-------------------|

| |


|-------------------|
|-------------------|
|-------------------|
|-----------------5-|
|-7-5-------7-5-7---|
|-----8-5-----------|

x 1


|-5-----7---8-----7-|
|-------------------|
|-------------------|
|-------------------|
|-------------------|
|-------------------|

| |


|-------------------|
|-------------------|
|-------------------|
|-----------------5-|
|-7-5-------7-5-7---|
|-----8-5-----------|

Riff 3 /w Riff 1

x 2


---------------------------------------
-5---------5---5-8---5---------5---5---
---5-4-------7---------5-4-------7---7-
-------7-------------------7-----------
---------------------------------------
---------------------------------------

Riff 1

Riff 4 /w Riff 1


-------------------------------------
-------------------------------------
-------------------------------------
-------------------------------------
-------------------------------------
-5---7-5---7-5-7-8---8-7-8-7---7-8-7-
-------------------------------------
-------------------------------------
-------------------------------------
-------------------------------------
---------------------------5---5-----
-5---7-5---7-5-7-8---8-7-8-------8-7-
-------------------------------------
-------------------------------------
-------------------------------------
-------------------------------------
-------------------------------------
-5---7-5---7-5-7-8---8-7-8-7---7-8-7-
-------------------------------------
-------------------------------------
-------------------------------------
-------------------------------------
---------------------------5---------
-5---7-5---7-5-7-8---8-7-8-----------

Riff 5


|-------------------------------|
|-------------------------------|
|-------------------------------|
|-------------------------------|
|-8---7---5---7-8-----------5---|
|-----------------8---7---8---5-|

| |


|-------------------------------|
|-------------------------------|
|-------------------------------|
|-------------5-7---------------|
|-8---7---8-------7---5-----5---|
|-------------------------8---5-|

Riff 6

x 3


---------------------------------------------------------
---------------------------------------------------------
---------------------------------------------------------
-----------------------------5---------------------------
-8---7-7-7-8-7---7-8-7-8-7-8-------------------------5---
---------------------------------8-7-7---8-7-7---8-8---5-
-------------------------------------------------
-------------------------------------------------
-------------------------------------------------
-------------------------------------------------
-8-8-8-8-8-8-7-7-7-7-7-7-5-5-5-5-5-5-5-5-----7-8-
-------------------------------------------------
-------------------------------------------------
-------------------------------------------------
-------------------------------------------------
-------------------------------------------------
-------------------------------5-5-5-------------
-8-8-8-8-8-8-7-7-7-7-7-7-8-8-8-------5-5-5-5-5-5-

Riff 7

skipped

Riff 8


|-------------------------------------------------5---------------|
|-5------6----5-6-8---6---5-------6-------8---6-8------8--6-------|
|-----------------------------------------------------------------|
|-----------------------------------------------------------------|
|-----------------------------------------------------------------|
|-----------------------------------------------------------------|

| |


|-----------------------------------------------------------------|
|-----------------------------------------------------------------|
|-----------------------------------------------------------------|
|-7-7-7-7-7-7-7-7-7-7-7-7-7-7-7-7-8-8-8-8-8-8-8-8-8-8-8-8-8-8-8-8-|
|-7-7-7-7-7-7-7-7-7-7-7-7-7-7-7-7-8-8-8-8-8-8-8-8-8-8-8-8-8-8-8-8-|
|-5-5-5-5-5-5-5-5-5-5-5-5-5-5-5-5-6-6-6-6-6-6-6-6-6-6-6-6-6-6-6-6-|

1 e + a 2 e + a 3 e + a 4 e + a 1 e + a 2 e + a 3 e + a 4 e + a

Riff 9

skipped

Riff 10

x 4


-----------------------------------
-----------------------------------
-----------------------------------
---------------------5-------------
-----5-6-5---5-6-5-------8---7---8-
-6---------6-----------------------

Riff 11

x 4


-------------------------------------------------
-------------------------------------------------
-------------------------------------------------
-------------------------------------------------
-------8-8-8-7-7-7-5-5-5-------5-5-5-7-7-7-------
-5-5-5-------------------8-8-8-------------8-8-8-

Riff 10

Riff 12 – Bass

x 8


--------------
--------------
--------------
-5------6---8-

Riff 6

Riff 13

Guitar 1 repeats:


-0-7-8-10-0-7-8-10p8p7-
-----------------------
-----------------------
-----------------------
-----------------------
-----------------------

Guitar 2


---------------------
---------------------
---------------------
-2---9---5---4---5-4-
-2---9---5---4---5-4-
-0---7---3---2---3-2-

Riff 14

x 6


-----------------------------------------------------------------
-----------------------------------------------------------------
-----------------------------------------------------------------
-----------------------------------------------------------------
-------------------------------------------------5-5-5-5-5-5-5-5-
-7-7-7-7-7-7-7-7-7-7-7-7-7-7-7-7-8-8-8-8-8-8-8-8-----------------

To play the this songs, including Dusk and Her Embrace by Cradle of Filth by ukulele, the most crucial basic ukulele chords to learn are C chord, D chord, G chord, and Em chord.
These set you up to play a many of songs, and each of them is easy to master.

If you are looking for Dusk and Her Embrace ukulele chords, you have visit to the best place.
You can play versatile instrument Dusk and Her Embrace using ukulele or guitar.
This song by Cradle of Filth can also be played by that instruments.
=

Dusk and Her Embrace chords has rhythm and included in Dusk and Her Embrace (1996) album.
You can also get other musical style, including jazz ukulele chords, country music ukulele chords, pop ukulele chords, world music ukulele chords, and rock ukulele chords here.

Dusk and Her Embrace by Cradle of Filth Ukulele Chords


Dusk and Her Embrace by CoF

Tabbed by tay

Tune down one whole step.

Riff 1

x 4


--------------------------------------------
--------------------------------------------
--------------------------------------------
-7---7-7-7-7---7-7-7-10--10-10-10-9---9-9-9-
-7---7-7-7-7---7-7-7-10--10-10-10-9---9-9-9-
-5---5-5-5-5---5-5-5-8---8--8--8--7---7-7-7-

Riff 2

x 3


|-------------------|
|-5---------5---5-8-|
|---7-5-------7-----|
|-------7-----------|
|-------------------|
|-------------------|

| |


|-------------------|
|-------------------|
|-------------------|
|-----------------5-|
|-7-5-------7-5-7---|
|-----8-5-----------|

x 1


|-5-----7---8-----7-|
|-------------------|
|-------------------|
|-------------------|
|-------------------|
|-------------------|

| |


|-------------------|
|-------------------|
|-------------------|
|-----------------5-|
|-7-5-------7-5-7---|
|-----8-5-----------|

Riff 3 /w Riff 1

x 2


---------------------------------------
-5---------5---5-8---5---------5---5---
---5-4-------7---------5-4-------7---7-
-------7-------------------7-----------
---------------------------------------
---------------------------------------

Riff 1

Riff 4 /w Riff 1


-------------------------------------
-------------------------------------
-------------------------------------
-------------------------------------
-------------------------------------
-5---7-5---7-5-7-8---8-7-8-7---7-8-7-
-------------------------------------
-------------------------------------
-------------------------------------
-------------------------------------
---------------------------5---5-----
-5---7-5---7-5-7-8---8-7-8-------8-7-
-------------------------------------
-------------------------------------
-------------------------------------
-------------------------------------
-------------------------------------
-5---7-5---7-5-7-8---8-7-8-7---7-8-7-
-------------------------------------
-------------------------------------
-------------------------------------
-------------------------------------
---------------------------5---------
-5---7-5---7-5-7-8---8-7-8-----------

Riff 5


|-------------------------------|
|-------------------------------|
|-------------------------------|
|-------------------------------|
|-8---7---5---7-8-----------5---|
|-----------------8---7---8---5-|

| |


|-------------------------------|
|-------------------------------|
|-------------------------------|
|-------------5-7---------------|
|-8---7---8-------7---5-----5---|
|-------------------------8---5-|

Riff 6

x 3


---------------------------------------------------------
---------------------------------------------------------
---------------------------------------------------------
-----------------------------5---------------------------
-8---7-7-7-8-7---7-8-7-8-7-8-------------------------5---
---------------------------------8-7-7---8-7-7---8-8---5-
-------------------------------------------------
-------------------------------------------------
-------------------------------------------------
-------------------------------------------------
-8-8-8-8-8-8-7-7-7-7-7-7-5-5-5-5-5-5-5-5-----7-8-
-------------------------------------------------
-------------------------------------------------
-------------------------------------------------
-------------------------------------------------
-------------------------------------------------
-------------------------------5-5-5-------------
-8-8-8-8-8-8-7-7-7-7-7-7-8-8-8-------5-5-5-5-5-5-

Riff 7

skipped

Riff 8


|-------------------------------------------------5---------------|
|-5------6----5-6-8---6---5-------6-------8---6-8------8--6-------|
|-----------------------------------------------------------------|
|-----------------------------------------------------------------|
|-----------------------------------------------------------------|
|-----------------------------------------------------------------|

| |


|-----------------------------------------------------------------|
|-----------------------------------------------------------------|
|-----------------------------------------------------------------|
|-7-7-7-7-7-7-7-7-7-7-7-7-7-7-7-7-8-8-8-8-8-8-8-8-8-8-8-8-8-8-8-8-|
|-7-7-7-7-7-7-7-7-7-7-7-7-7-7-7-7-8-8-8-8-8-8-8-8-8-8-8-8-8-8-8-8-|
|-5-5-5-5-5-5-5-5-5-5-5-5-5-5-5-5-6-6-6-6-6-6-6-6-6-6-6-6-6-6-6-6-|

1 e + a 2 e + a 3 e + a 4 e + a 1 e + a 2 e + a 3 e + a 4 e + a

Riff 9

skipped

Riff 10

x 4


-----------------------------------
-----------------------------------
-----------------------------------
---------------------5-------------
-----5-6-5---5-6-5-------8---7---8-
-6---------6-----------------------

Riff 11

x 4


-------------------------------------------------
-------------------------------------------------
-------------------------------------------------
-------------------------------------------------
-------8-8-8-7-7-7-5-5-5-------5-5-5-7-7-7-------
-5-5-5-------------------8-8-8-------------8-8-8-

Riff 10

Riff 12 – Bass

x 8


--------------
--------------
--------------
-5------6---8-

Riff 6

Riff 13

Guitar 1 repeats:


-0-7-8-10-0-7-8-10p8p7-
-----------------------
-----------------------
-----------------------
-----------------------
-----------------------

Guitar 2


---------------------
---------------------
---------------------
-2---9---5---4---5-4-
-2---9---5---4---5-4-
-0---7---3---2---3-2-

Riff 14

x 6


-----------------------------------------------------------------
-----------------------------------------------------------------
-----------------------------------------------------------------
-----------------------------------------------------------------
-------------------------------------------------5-5-5-5-5-5-5-5-
-7-7-7-7-7-7-7-7-7-7-7-7-7-7-7-7-8-8-8-8-8-8-8-8-----------------


To play the this songs, including Dusk and Her Embrace by Cradle of Filth by ukulele, the most crucial basic ukulele chords to learn are C chord, D chord, G chord, and Em chord.
These set you up to play a a lot of songs, and each of them is easy to learn.

If you are looking for The Night at Catafalque Manor ukulele chords, you’ve visit to the right place.
You can play versatile instrument The Night at Catafalque Manor using ukulele or guitar.
This song by Cradle of Filth can also be played by that instruments.
=

The Night at Catafalque Manor chords has rhythm and included in Cryptoriana: The Seductiveness of Decay (2017) album.
You can also get other musical genres, including jazz ukulele chords, country music ukulele chords, pop ukulele chords, world music ukulele chords, and rock ukulele chords here.

The Night at Catafalque Manor by Cradle of Filth Ukulele Chords


D|---------------------------------------------------------------|
A|---------------------------------------------------------------|
F|--^------------------------------------------------------------|
C|-7/10-10-10-10-10-10-10-9-9-7-7-7-7-7-7-7-7-7--9--9--9--9--9---|
G|-0-----0--0--0--0--0--0-0-0-0-0-0-0-0-0-0-0-8/10-10-10-10-10---|
D|---------------------------------------------------------------|
D|------------------------------------------------------------------|
A|------------------------------------------------------------------|
F|------------------------------------------------------------------|
C|-9/12-12-12-12-12-12-12-12-10-10-9-9-7-7-7-7-7-7-7--9--9--9--9--9-|
G|-0-----0--0--0--0--0--0--0--0--0-0-0-0-0-0-0-0-0-8/10-10-10-10-10-|
D|------------------------------------------------------------------|
D|-------------------------------------------------|
A|-------------------------------------------------|
F|-------------------------------------------------|
C|-10/14-14-14-14-14-14-14-12-12-10-10-9-9-9-9-9-9-|
G|--0-----0--0--0--0--0--0--0--0--0--0-0-0-0-0-0-0-|
D|-------------------------------------------------|
D|-------------------------------------------------------------------|
A|-------------------------------------------------------------------|
F|-------------------------------------------------------------------|
C|-------------------------------------------------------------------|
G|-10-10-10-10-10-10-5-5-5-5-5-5-5-5-5-5-5-5-3-3-3-3-3-3-2-2-2-2-2-2-|
D|--8--8--8--8--8--8-3-3-3-3-3-3-3-3-3-3-3-3-1-1-1-1-1-1-0-0-0-0-0-0-|
D|---------------------------------------------------------------|
A|---------------------------------------------------------------|
F|--^------------------------------------------------------------|
C|-7/10-10-10-10-10-10-10-9-9-7-7-7-7-7-7-7-7-7--9--9--9--9--9---|
G|-0-----0--0--0--0--0--0-0-0-0-0-0-0-0-0-0-0-8/10-10-10-10-10---|
D|---------------------------------------------------------------|
D|------------------------------------------------------------------|
A|------------------------------------------------------------------|
F|------------------------------------------------------------------|
C|-9/12-12-12-12-12-12-12-12-10-10-9-9-7-7-7-7-7-7-7--9--9--9--9--9-|
G|-0-----0--0--0--0--0--0--0--0--0-0-0-0-0-0-0-0-0-8/10-10-10-10-10-|
D|------------------------------------------------------------------|
D|-------------------------------------------------|
A|-------------------------------------------------|
F|-------------------------------------------------|
C|-10/14-14-14-14-14-14-14-12-12-10-10-9-9-9-9-9-9-|
G|--0-----0--0--0--0--0--0--0--0--0--0-0-0-0-0-0-0-|
D|-------------------------------------------------|
D|-------------------------------------------------------------------|
A|-------------------------------------------------------------------|
F|-------------------------------------------------------------------|
C|-------------------------------------------------------3-3-3-3-3-3-|
G|-10-10-10-10-10-10-5-5-5-5-5-5-5-5-5-5-5-5-3-3-3-3-3-3-1-1-1-1-1-1-|
D|--8--8--8--8--8--8-3-3-3-3-3-3-3-3-3-3-3-3-1-1-1-1-1-1-------------|
D|---------------------------------------------------------------|
A|---------------------------------------------------------------|
F|--^------------------------------------------------------------|
C|-7/10-10-10-10-10-10-10-9-9-7-7-7-7-7-7-7-7-7--9--9--9--9--9---|
G|-0-----0--0--0--0--0--0-0-0-0-0-0-0-0-0-0-0-8/10-10-10-10-10---|
D|---------------------------------------------------------------|
D|------------------------------------------------------------------|
A|------------------------------------------------------------------|
F|------------------------------------------------------------------|
C|-9/12-12-12-12-12-12-12-12-10-10-9-9-7-7-7-7-7-7-7--9--9--9--9--9-|
G|-0-----0--0--0--0--0--0--0--0--0-0-0-0-0-0-0-0-0-8/10-10-10-10-10-|
D|------------------------------------------------------------------|
D|-------------------------------------------------|
A|-------------------------------------------------|
F|-------------------------------------------------|
C|-10/14-14-14-14-14-14-14-12-12-10-10-9-9-9-9-9-9-|
G|--0-----0--0--0--0--0--0--0--0--0--0-0-0-0-0-0-0-|
D|-------------------------------------------------|
D|-------------------------------------------------------------------|
A|-------------------------------------------------------------------|
F|-------------------------------------------------------------------|
C|-------------------------------------------------------------------|
G|-10-10-10-10-10-10-5-5-5-5-5-5-5-5-5-5-5-5-3-3-3-3-3-3-2-2-2-2-2-2-|
D|--8--8--8--8--8--8-3-3-3-3-3-3-3-3-3-3-3-3-1-1-1-1-1-1-0-0-0-0-0-0-|
D|---------------------------------------------------------------|
A|---------------------------------------------------------------|
F|--^------------------------------------------------------------|
C|-7/10-10-10-10-10-10-10-9-9-7-7-7-7-7-7-7-7-7--9--9--9--9--9---|
G|-0-----0--0--0--0--0--0-0-0-0-0-0-0-0-0-0-0-8/10-10-10-10-10---|
D|---------------------------------------------------------------|
D|------------------------------------------------------------------|
A|------------------------------------------------------------------|
F|------------------------------------------------------------------|
C|-9/12-12-12-12-12-12-12-12-10-10-9-9-7-7-7-7-7-7-7--9--9--9--9--9-|
G|-0-----0--0--0--0--0--0--0--0--0-0-0-0-0-0-0-0-0-8/10-10-10-10-10-|
D|------------------------------------------------------------------|
D|-------------------------------------------------|
A|-------------------------------------------------|
F|-------------------------------------------------|
C|-10/14-14-14-14-14-14-14-12-12-10-10-9-9-9-9-9-9-|
G|--0-----0--0--0--0--0--0--0--0--0--0-0-0-0-0-0-0-|
D|-------------------------------------------------|
D|-----------------------------------------------------------------|
A|-----------------------------------------------------------------|
F|-----------------------------------------------------------------|
C|-------------------------------------------------------3---3---3-|
G|-10-10-10-10-10-10-5-5-5-5-5-5-5-5-5-5-5-5-3---3---3---1---1---1-|
D|--8--8--8--8--8--8-3-3-3-3-3-3-3-3-3-3-3-3-1---1---1-------------|

0:40


D|-----------------------------------------------------------------------------------|
A|-----------------------------------------------------------------------------------|
F|---------------------------------------------------5-5-5-5-5-5-5-5-8-8-8-8-8-8-8-8-|
C|-------------------------5-1-1-4-------------------5-5-5-5-5-5-5-5-8-8-8-8-8-8-8-8-|
G|---2---2-3-2---2-5-2---2-5-1-1-4----2---2-3-2---2--3-3-3-3-3-3-3-3-6-6-6-6-6-6-6-6-|
D|-0-0---0-1-0---0-3-0---0----------0-0---0-1-0---0----------------------------------|


D|-------------------------------------------------|L---------------------------------|
A|-------------------------------------------------|----------------------------------|
F|-------------------------------------------------|----------------------------------|
C|-------------------------5-1-1-4-----------------|----------------------------------|
G|---2---2-3-2---2-5-2---2-5-1-1-4----2---2-3-2---2|--3-3-3-3-3-3-3-3-2-2-2-2-2-2-2-2-|
D|-0-0---0-1-0---0-3-0---0----------0-0---0-1-0---0|----------------------------------|

R


|----------------------------------|
|----------------------------------|
|----------------------------------|
|-5-5-5-5-5-5-5-5------------------|
|-----------------6-6-6-6-6-6-6-6--|
|----------------------------------|

L


D|------------------------------------------------------------------|
A|------------------------------------------------------------------|
F|------------------------------------------------------------------|
C|------------------------------------------------------------------|
G|-------------------------------------------------5-5-1-1-1-1-4-4--|
D|-0-0-0-0-1-0-0-0-3-0-0-0-0-0-1-0-0-0-3-0-0-0-0-0------------------|

R


D|---------------------------------------------------------------------|
A|---------------------------------------------------------------------|
F|---------------------------------------------------------------------|
C|---------------------------------------------------------------------|
G|-7-7-7-7-8-7-7-7-10-7-7-7-7-7-8-7-7-7-10-7-7-7-7-7-10-10-6-6-6-6-8-8-|
D|---------------------------------------------------------------------|

0:50

L


D|------------------------------------------------------------------------|
A|------------------------------------------------------------------------|
F|------------------------------------------------------------------------|
C|---------------------------------------------------5--5-5--5--8--8-8--8-|
G|---------------------------------------------------3--3-3--3--6--6-6--6-|
D|-0-0-0-0-1-0-0-0-3-0-0-0-0-0-1-0-0-0-3-0-0-0-0-0-0----------------------|

R


D|--------------------------------------------------------------------------|
A|--------------------------------------------------------------------------|
F|--------------------------------------------------------------------------|
C|-----------------------------------------------------5--5-5--5--8--8-8--8-|
G|-7-7-7-7-8-7-7-7-10-7-7-7-7-7-8-7-7-7-10-7-7-7-7-7-7-3--3-3--3--6--6-6--6-|
D|--------------------------------------------------------------------------|

L


D|------------------------------------------------------------------|
A|------------------------------------------------------------------|
F|------------------------------------------------------------------|
C|------------------------------------------------------------------|
G|-------------------------------------------------5-5-1-1-1-1-4-4--|
D|-0-0-0-0-1-0-0-0-3-0-0-0-0-0-1-0-0-0-3-0-0-0-0-0------------------|

R


D|---------------------------------------------------------------------|
A|---------------------------------------------------------------------|
F|---------------------------------------------------------------------|
C|---------------------------------------------------------------------|
G|-7-7-7-7-8-7-7-7-10-7-7-7-7-7-8-7-7-7-10-7-7-7-7-7-10-10-6-6-6-6-8-8-|
D|---------------------------------------------------------------------|

L


D|---------------------------------------------------------------------|
A|---------------------------------------------------------------------|
F|---------------------------------------------------------------------|
C|---------------------------------------------------5--5-5---4--4-4---|
G|---------------------------------------------------3--3-3---2--2-2---|
D|-0-0-0-0-1-0-0-0-3-0-0-0-0-0-1-0-0-0-3-0-0-0-0-0-0-------------------|

R


D|----------------------------------------------------------------------|
A|----------------------------------------------------------------------|
F|----------------------------------------------------------------------|
C|-----------------------------------------------------5--5-5---4--4-4--|
G|-7-7-7-7-8-7-7-7-10-7-7-7-7-7-8-7-7-7-10-7-7-7-7-7-7-3--3-3---2--2-2--|
D|----------------------------------------------------------------------|

1:02


D|-----------------------------------------------------------|
A|------___-----------------____---------___-----------------|
F|-----/ -------^-------/ -------/ -------^-----10-|
C|----8-7-8-7----10-9----10-9-11-10----8-7-8-7----10-7----10-|
G|-00---------00------00------------00---------00------00----|
D|-----------------------------------------------------------|

D|-----------------------------------------------|
A|------___-----------------____-----------------|
F|-----/ -------^-------/ ----7-----3-----|
C|----8-7-8-7----10-9----10-9-11-10--7-----3-----|
G|-00---------00------00-------------5-----1-----|
D|-----------------------------------------------|

D|-----------------------------------------------------------|
A|------___-----------------____---------___-----------------|
F|-----/ -------^-------/ -------/ -------^-----10-|
C|----8-7-8-7----10-9----10-9-11-10----8-7-8-7----10-7----10-|
G|-00---------00------00------------00---------00------00----|
D|-----------------------------------------------------------|

D|---------------------------------------------|
A|-----___-----------------____----------------|
F|----/ -------^-------/ ---3-3-3-4-4-4-|
C|---8-7-8-7----10-9----10-9-11-10-3-3-3-4-4-4-|
G|00---------00------00------------1-1-1-2-2-2-|
D|---------------------------------------------|

1:12


D|-----------------------------------------------------------------------------------|
A|-----------------------------------------------------------------------------------|
F|---------------------------------------------------5-5-5-5-5-5-5-5-8-8-8-8-8-8-8-8-|
C|-------------------------5-1-1-4-------------------5-5-5-5-5-5-5-5-8-8-8-8-8-8-8-8-|
G|---2---2-3-2---2-5-2---2-5-1-1-4----2---2-3-2---2--3-3-3-3-3-3-3-3-6-6-6-6-6-6-6-6-|
D|-0-0---0-1-0---0-3-0---0----------0-0---0-1-0---0----------------------------------|

D|----------------------------------------------------------------------|
A|----------------------------------------------------------------------|
F|----------------------------------------------------------------------|
C|-------------------------5-1-1-4-------------------5---5--5--4-5-4-5--|
G|---2---2-3-2---2-5-2---2-5-1-1-4----2---2-3-2---2--3---3--3--2/3-2/3--|
D|-0-0---0-1-0---0-3-0---0----------0-0---0-1-0---0---------------------|

D|------------------------------------------------------------|
A|------------------------------------------------------------|
F|------------------------------------------------------------|
C|---------------------------------------------------------4--|
G|-1-1-1-1-1-1-1-1-1-1-1-1-1-1-1-1-1-1-1-1-1-1-1-1-4-1-1-1-2--|
D|------------------------------------------------------------|

L


D|---------------------------------------------------------|
A|---------------------------------------------------------|
F|------------------------------------_------__------------|
C|-----------------------------------/ ----/ -----------|
G|-1-1-1-1-1-1-1-1-1-1-1-1-1-1-1-1--6-4-6--11-9-11--14-13~-|
D|---------------------------------------------------------|

R


D|--------------------------------------------------------|
A|-----------------------------------_------_-------------|
F|----------------------------------/ ----/ ------------|
C|---------------------------------4-3-4--9-8-9--13-11~---|
G|-1-1-1-1-1-1-1-1-1-1-1-1-1-1-1-1------------------------|
D|--------------------------------------------------------|


D|-----------------------------------------|
A|-----------------------------------------|
F|-----------------------------------------|
C|---------------------------------^----4--|
G|-1--1-1-1--1--1-1-1--1--1-1-1-1-4-1-1-2--|
D|-----------------------------------------|

L


D|-------------------------------------------|
A|-------------------------------------------|
F|-------------------------------------------|
C|-3--3-3-3-3-4--4-4-4-4-6--6-6-6-6-8-10-10--|
G|-1--1-1-1-1-2--2-2-2-2-4--4-4-4-4-6--8--8--|
D|-------------------------------------------|

R


D|---------------------------------------------------|
A|---------------------------------------------------|
F|-6--6-6-6-6-8--8-8-8-8-10--10-10-10-10--11--12-12--|
C|-X--X-X-X-X-X--X-X-X-X--X---X--X--X--X---X---X--X--|
G|-4--4-4-4-4-6--6-6-6-6--8---8--8--8--8---9--10-10--|
D|---------------------------------------------------|

1:32


------------------------------------------------------------------|
------------------------------------------------------------------|
-10---8---8~----8---10---11---10-------11---10-------11---10---10~|
-----------------------------------8-------------8----------------|
------------------------------------------------------------------|
------------------------------------------------------------------|
------------------------------------------------------------------|
------------------------------------------------------------------|
------------------------------------------------------------------|
-8--------------8-------------------------------------------------|
-6--------------6--------------------------------------8----------|
-------------------------------------------------------6----------|

|


--------------------------------------------------------------------------------------|
------------------------------------------------------------------9-------------------|
-8---10---11---10-------11---10-------10---8---8~----8---10---11------11---10---8---6-|
--------------------11------------11--------------------------------------------------|
--------------------------------------------------------------------------------------|
--------------------------------------------------------------------------------------|
--------------------------------------------------------------------------------------|
--------------------------------------------------------------------------------------|
--------------------------------------------------------------------------------------|
--------------------------------------------------------------11-----------10---------|
-----------8-------------8-------------9-----------------------9------------8---------|
-----------6-------------6-------------7----------------------------------------------|

1:40- 1:32 RIFF REPEATS ALL TREMELO PICKED

1:48


D|------------------------------------------------------------------|
A|------------------------------------------------------------------|
F|-10---8---8~----8---10---11---10-------11---10-------11---10---10~|
C|-----------------------------------8-------------8----------------|
G|------------------------------------------------------------------|
D|------------------------------------------------------------------|


D|---------------------6----7---9----------7---6-------7----6-------|
A|--9---7---7~----9------------------7-------------7-------------9~-|
F|------------------------------------------------------------------|
C|------------------------------------------------------------------|
G|------------------------------------------------------------------|
D|------------------------------------------------------------------|


D|--------------------------------------------------------------------------------------|
A|------------------------------------------------------------------9-------------------|
F|-8---10---11---10-------11---10-------10---8---8~----8---10---11------11---10---8---6-|
C|--------------------11------------11--------------------------------------------------|
G|--------------------------------------------------------------------------------------|
D|--------------------------------------------------------------------------------------|


D|-----------6-------------7---6-------------6------------------6---7---6-------------|
A|-7---9----------9---6-------------9----9-------7~----7---9---------------9---7---6--|
F|------------------------------------------------------------------------------------|
C|------------------------------------------------------------------------------------|
G|------------------------------------------------------------------------------------|
D|------------------------------------------------------------------------------------|

1:56


D|--------------------------------------------------|
A|--------------------------------------------------|
F|-8-8-8-8-8-8-8-8-8-8-8-8-8-8-8-8-8-8-8-8-8-8-8-8--|
C|-8-8-8-8-8-8-8-8-8-8-8-8-8-8-8-8-8-8-8-8-8-8-8-8--|
G|-6-6-6-6-6-6-6-6-6-6-6-6-6-6-6-6-6-6-6-6-6-6-6-6--|
D|--------------------------------------------------|
D|--------------------------------------------------|
A|--------------------------------------------------|
F|-8-8-8-8-8-8-8-8-8-8-8-8-8-8-8-8-8-8-8-8-8-8-8-8--|
C|-8-8-8-8-8-8-8-8-8-8-8-8-8-8-8-8-8-8-8-8-8-8-8-8--|
G|-6-6-6-6-6-6-6-6-6-6-6-6-6-6-6-6-6-6-6-6-6-6-6-6--|
D|--------------------------------------------------|
D|--------------------------------------------------|
A|--------------------------------------------------|
F|-6-6-6-6-6-6-6-6-6-6-6-6-6-6-6-6-6-6-6-6-6-6-6-6--|
C|-6-6-6-6-6-6-6-6-6-6-6-6-6-6-6-6-6-6-6-6-6-6-6-6--|
G|-4-4-4-4-4-4-4-4-4-4-4-4-4-4-4-4-4-4-4-4-4-4-4-4--|
D|--------------------------------------------------|
D|-------------------------------------------------------|
A|-------------------------------------------------------|
F|-8-8-8-8-8-8-9-9-9-9-9-9-11-11-11-11-11-11-6-6-6-6-6-6-|
C|-8-8-8-8-8-8-9-9-9-9-9-9-11-11-11-11-11-11-6-6-6-6-6-6-|
G|-6-6-6-6-6-6-7-7-7-7-7-7--9--9--9--9--9--9-4-4-4-4-4-4-|
D|-------------------------------------------------------|
D|--------------------------------------------------|
A|--------------------------------------------------|
F|-8-8-8-8-8-8-8-8-8-8-8-8-8-8-8-8-8-8-8-8-8-8-8-8--|
C|-8-8-8-8-8-8-8-8-8-8-8-8-8-8-8-8-8-8-8-8-8-8-8-8--|
G|-6-6-6-6-6-6-6-6-6-6-6-6-6-6-6-6-6-6-6-6-6-6-6-6--|
D|--------------------------------------------------|
D|--------------------------------------------------|
A|--------------------------------------------------|
F|-8-8-8-8-8-8-8-8-8-8-8-8-8-8-8-8-8-8-8-8-8-8-8-8--|
C|-8-8-8-8-8-8-8-8-8-8-8-8-8-8-8-8-8-8-8-8-8-8-8-8--|
G|-6-6-6-6-6-6-6-6-6-6-6-6-6-6-6-6-6-6-6-6-6-6-6-6--|
D|--------------------------------------------------|
D|--------------------------------------------------|
A|--------------------------------------------------|
F|-6-6-6-6-6-6-6-6-6-6-6-6-6-6-6-6-6-6-6-6-6-6-6-6--|
C|-6-6-6-6-6-6-6-6-6-6-6-6-6-6-6-6-6-6-6-6-6-6-6-6--|
G|-4-4-4-4-4-4-4-4-4-4-4-4-4-4-4-4-4-4-4-4-4-4-4-4--|
D|--------------------------------------------------|
D|--------------------------------------------------|
A|--------------------------------------------------|
F|-4-4-4-4-4-4-4-4-4-4-4-4-6-6-6-6-6-6-6-6-6-6-6-6--|
C|-4-4-4-4-4-4-4-4-4-4-4-4-6-6-6-6-6-6-6-6-6-6-6-6--|
G|-2-2-2-2-2-2-2-2-2-2-2-2-4-4-4-4-4-4-4-4-4-4-4-4--|
D|--------------------------------------------------|

2:16


D|------------------------------------------------------------------|
A|------------------------------------------------------------------|
F|-10---8---8~----8---10---11---10-------11---10-------11---10---10~|
C|-----------------------------------8-------------8----------------|
G|------------------------------------------------------------------|
D|------------------------------------------------------------------|


D|---------------------6----7---9----------7---6-------7----6-------|
A|--9---7---7~----9------------------7-------------7-------------9~-|
F|------------------------------------------------------------------|
C|------------------------------------------------------------------|
G|------------------------------------------------------------------|
D|------------------------------------------------------------------|


D|--------------------------------------------------------------------------------------|
A|------------------------------------------------------------------9-------------------|
F|-8---10---11---10-------11---10-------10---8---8~----8---10---11------11---10---8---6-|
C|--------------------11------------11--------------------------------------------------|
G|--------------------------------------------------------------------------------------|
D|--------------------------------------------------------------------------------------|


D|-----------6-------------7---6-------------6------------------6---7---6-------------|
A|-7---9----------9---6-------------9----9-------7~----7---9---------------9---7---6--|
F|------------------------------------------------------------------------------------|
C|------------------------------------------------------------------------------------|
G|------------------------------------------------------------------------------------|
D|------------------------------------------------------------------------------------|
D|------------------------------------------------------------------|
A|------------------------------------------------------------------|
F|-10---8---8~----8---10---11---10-------11---10-------11---10---10~|
C|-----------------------------------8-------------8----------------|
G|------------------------------------------------------------------|
D|------------------------------------------------------------------|


D|---------------------6----7---9----------7---6-------7----6-------|
A|--9---7---7~----9------------------7-------------7-------------9~-|
F|------------------------------------------------------------------|
C|------------------------------------------------------------------|
G|------------------------------------------------------------------|
D|------------------------------------------------------------------|


D|--------------------------------------------------------------------------------------|
A|------------------------------------------------------------------9-------------------|
F|-8---10---11---10-------11---10-------10---8---8~----8---10---11------11---10---8---6-|
C|--------------------11------------11--------------------------------------------------|
G|--------------------------------------------------------------------------------------|
D|--------------------------------------------------------------------------------------|


D|-----------6-------------7---6-------------6------------------6---7---6-------------|
A|-7---9----------9---6-------------9----9-------7~----7---9---------------9---7---6--|
F|------------------------------------------------------------------------------------|
C|------------------------------------------------------------------------------------|
G|------------------------------------------------------------------------------------|
D|------------------------------------------------------------------------------------|


D|----------------------------------|
A|----------------------------------|
F|--11-10-8-------------------------|
C|----------11-9-8-11-9-8-----------|
G|------------------------11-9-8----|
D|----------------------------------|


D|----------------------------------|
A|--11-9-7--------------------------|
F|---------10-8-6-10-8-6------------|
C|-----------------------9-8-6------|
G|----------------------------------|
D|----------------------------------|

2:34


D|---------------------------------------------------------------|
A|---------------------------------------------------------------|
F|-7/10-10-10-10-10-10-10-9-9-7-7-7-7-7-7-7-7-7--9--9--9--9--9---|
C|-0-----0--0--0--0--0--0-0-0-0-0-0-0-0-0-0-0-8/10-10-10-10-10---|
G|---------------------------------------------------------------|
D|---------------------------------------------------------------|
D|------------------------------------------------------------------|
A|------------------------------------------------------------------|
F|-9/12-12-12-12-12-12-12-12-10-10-9-9-7-7-7-7-7-7-7--9--9--9--9--9-|
C|-0-----0--0--0--0--0--0--0--0--0-0-0-0-0-0-0-0-0-8/10-10-10-10-10-|
G|------------------------------------------------------------------|
D|------------------------------------------------------------------|
D|-------------------------------------------------|
A|-------------------------------------------------|
F|-10/14-14-14-14-14-14-14-12-12-10-10-9-9-9-9-9-9-|
C|--0-----0--0--0--0--0--0--0--0--0--0-0-0-0-0-0-0-|
G|-------------------------------------------------|
D|-------------------------------------------------|
D|---------------------------------------------------------------------|
A|---------------------------------------------------------------------|
F|-10-10-10-10-10-10-5-5-5-5-5-5-5-5-5-5-5-5-5-5-5-5-5-5-5-5-5-5-5-5-5-|
C|-10-10-10-10-10-10-5-5-5-5-5-5-5-5-5-5-5-5-5-5-5-5-5-5-5-5-5-5-5-5-5-|
G|--8--8--8--8--8--8-3-3-3-3-3-3-3-3-3-3-3-3-3-3-3-3-3-3-3-3-3-3-3-3-3-|
D|---------------------------------------------------------------------|

2:43


D|---------------------------------------------------------------|
A|---------------------------------------------------------------|
F|--^------------------------------------------------------------|
C|-7/10-10-10-10-10-10-10-9-9-7-7-7-7-7-7-7-7-7--9--9--9--9--9---|
G|-0-----0--0--0--0--0--0-0-0-0-0-0-0-0-0-0-0-8/10-10-10-10-10---|
D|---------------------------------------------------------------|
D|----------------------------------------------------------------------|
A|----------------------------------------------------------------------|
F|----------------------------------------------------------------------|
C|-9/12-12-12-12-12-12-12-12-10-10-9-9-9-9-9-9-9-9-9-9-7--9--9--9--9--9-|
G|-0-----0--0--0--0--0--0--0--0--0-0-0-0-0-0-0-0-0-0-0-8/10-10-10-10-10-|
D|----------------------------------------------------------------------|
D|-------------------------------------------------|
A|-------------------------------------------------|
F|--8-12-12-12-12-12-12-12-------------------------|
C|-10/14-14-14-14-14-14-14-12-12-10-10-9-9-9-9-9-9-|
G|--0-----0--0--0--0--0--0--0--0--0--0-0-0-0-0-0-0-|
D|-------------------------------------------------|
D|-------------------------------------------------------------------|
A|-------------------------------------------------------------------|
F|-------------------------------------------------------------------|
C|-------------------------------------------------------------------|
G|-10-10-10-10-10-10-5-5-5-5-5-5-5-5-5-5-5-5-3-3-3-3-3-3-2-2-2-2-2-2-|
D|--8--8--8--8--8--8-3-3-3-3-3-3-3-3-3-3-3-3-1-1-1-1-1-1-0-0-0-0-0-0-|
D|---------------------------------------------------------------|
A|---------------------------------------------------------------|
F|--^------------------------------------------------------------|
C|-7/10-10-10-10-10-10-10-9-9-7-7-7-7-7-7-7-7-7--9--9--9--9--9---|
G|-0-----0--0--0--0--0--0-0-0-0-0-0-0-0-0-0-0-8/10-10-10-10-10---|
D|---------------------------------------------------------------|
D|------------------------------------------------------------------|
A|------------------------------------------------------------------|
F|------------------------------------------------------------------|
C|-9/12-12-12-12-12-12-12-12-10-10-9-9-7-7-7-7-7-7-7--9--9--9--9--9-|
G|-0-----0--0--0--0--0--0--0--0--0-0-0-0-0-0-0-0-0-8/10-10-10-10-10-|
D|------------------------------------------------------------------|
D|-------------------------------------------------|
A|-------------------------------------------------|
F|-------------------------------------------------|
C|-10/14-14-14-14-14-14-14-12-12-10-10-9-9-9-9-9-9-|
G|--0-----0--0--0--0--0--0--0--0--0--0-0-0-0-0-0-0-|
D|-------------------------------------------------|
D|-------------------------------------------------------------------|
A|-------------------------------------------------------------------|
F|-------------------------------------------------------------------|
C|-------------------------------------------------------3-3-3-3-3-3-|
G|-10-10-10-10-10-10-5-5-5-5-5-5-5-5-5-5-5-5-3-3-3-3-3-3-1-1-1-1-1-1-|
D|--8--8--8--8--8--8-3-3-3-3-3-3-3-3-3-3-3-3-1-1-1-1-1-1-------------|
D|---------------------------------------------------------------|
A|---------------------------------------------------------------|
F|--^------------------------------------------------------------|
C|-7/10-10-10-10-10-10-10-9-9-7-7-7-7-7-7-7-7-7--9--9--9--9--9---|
G|-0-----0--0--0--0--0--0-0-0-0-0-0-0-0-0-0-0-8/10-10-10-10-10---|
D|---------------------------------------------------------------|
D|------------------------------------------------------------------|
A|------------------------------------------------------------------|
F|------------------------------------------------------------------|
C|-9/12-12-12-12-12-12-12-12-10-10-9-9-7-7-7-7-7-7-7--9--9--9--9--9-|
G|-0-----0--0--0--0--0--0--0--0--0-0-0-0-0-0-0-0-0-8/10-10-10-10-10-|
D|------------------------------------------------------------------|
D|-------------------------------------------------|
A|-------------------------------------------------|
F|-------------------------------------------------|
C|-10/14-14-14-14-14-14-14-12-12-10-10-9-9-9-9-9-9-|
G|--0-----0--0--0--0--0--0--0--0--0--0-0-0-0-0-0-0-|
D|-------------------------------------------------|
D|-----------------------------|
A|-----------------------------|
F|-----------------------------|
C|-----------------------------|
G|-10-10-10-10-10-10-5------3--|
D|--8--8--8--8--8--8-3------1--|


D|--------------------------------------------------|
A|--------------------------------------------------|
F|--------------------------------------------------|
C|--------------------------------------------------|
G|---2--------7-----------------------------7------|
D|---0--------5-----------------------------5------|


D|--------------------------------------------------|
A|--------------------------------------------------|
F|--------------------------------------------------|
C|--7---------10------------------------------------|
G|------------------------------------------7------|
D|------------------------------------------5------|

3:50


D|------------------------------------------------------------------------------|
A|------------------------------------------------------------------------------|
F|------------------------------------------------------------------------------|
C|----------------------P--------------P----------P-----------------------------|
G|---------6-6-6-6-7-----S---9--6-------S--7--3----S---3-6-------------6-6-6-6--|
D|-4-4-4-4-4-4-4-4-5---------7--4----------5--1--------1-4-----4-4-4-4-4-4-4-4--|


D|---------------------------------------------------------------|
A|---------------------------------------------------------------|
F|---------------------------------------------------------------|
C|---------------------------------------------------------------|
G|-7---7-7-7---7-7-7---7-7-7---9--6---6-6-6---6-6-6---6-6-6---7--|
D|-5---5-5-5---5-5-5---5-5-5---7--4---4-4-4---4-4-4---4-4-4---5--|
D|----------------------------------------------------------------|
A|----------------------------------------------------------------|
F|----------------------------------------------------------------|
C|----------------------------------------------------------------|
G|-3---3-3-3---3-3-3---3-3-3---3--6---6-6-6---6-6-6---6-6-6---6-6-|
D|-1---1-1-1---1-1-1---1-1-1---1--4---4-4-4---4-4-4---4-4-4---4-4-|

4:28


D|-------------------------------------------------|
A|-------------------------------------------------|
F|-------------------------------------------------|
C|----------6-----------7-----------6-----------7--|
G|-5--7--8-----5--7--8-----5--7--8-----5--7--8-----|
D|-------------------------------------------------|


D|-------------------------------------------------|
A|-------------------------------------------------|
F|-------------------------------------------------|
C|-------------------------------------------------|
G|-12-----------------------------------------12---|
D|-10-----------------------------------------10---|


D|-------------------------------------------------|
A|-------------------------------------------------|
F|-------------------------------------------------|
C|----------6-----------7-----------6-----------7--|
G|----7--8--------7--8--------7--8--------7--8-----|
D|-8-----------8-----------8-----------8-----------|


D|-------------------------------------------------|
A|-------------------------------------------------|
F|-------------------------------------------------|
C|-------------------------------------------------|
G|-10----------------------------------------10----|
D|--8-----------------------------------------8----|


D|-------------------------------------------------|
A|-------------------------------------------------|
F|-------------------------------------------------|
C|-------------------------------------------------|
G|----5--7--8-----5--7--8-----5--7--8-----5--7--8--|
D|-6-----------6-----------6-----------6-----------|


D|-------------------------------------------------|
A|-------------------------------------------------|
F|-------------------------------------------------|
C|-------------------------------------------------|
G|-8------------------------------------------8----|
D|-6------------------------------------------6----|


D|-------------------------------------------------|
A|-------------------------------------------------|
F|-------------------------------------------------|
C|-------------------------------------------------|
G|----5--7--8-----5--7--8-----4--5--7-----4--5--7--|
D|-5-----------5-----------5-----------5-----------|


D|-------------------------------------------------|
A|-------------------------------------------------|
F|-------------------------------------------------|
C|-------------------------------------------------|
G|-7-----------------------------------------------|
D|-5-------------------V---------------------------|

4:44


D|-------------------------------------------------|
A|-------------------------------------------------|
F|-7---------7-----7--9--7---------7-----7-9-------|
C|---7----------7----------7----------7------------|
G|-----8---------------------8---------------------|
D|-------10--------------------10------------------|


D|-------------------------------------------------|
A|-------------------------------------------------|
F|-------------------------------------------------|
C|----------6-----------7-----------6-----------7--|
G|-5--7--8-----5--7--8-----5--7--8-----5--7--8-----|
D|-------------------------------------------------|


D|-------------------------------------------------|
A|-------------------------------------------------|
F|-5-----------5-----7--9--5------------5-----7--9-|
C|----7-----------7-----------7------------7-------|
G|-------8-----------------------8-----------------|
D|----------8-----------------------10-------------|


D|-------------------------------------------------|
A|-------------------------------------------------|
F|-------------------------------------------------|
C|----------6-----------7-----------6-----------7--|
G|----7--8--------7--8--------7--8--------7--8-----|
D|-8-----------8-----------8-----------8-----------|

4:53


D|---------------------------------------------------------------------------------|
A|---------------------------------------------------------------------------------|
F|-7----------------7---------------7---------------7---------------12--10--12--14-|
C|-----7--8--10--8-----7--8--10--8-----7--8--10--8-----7--8--10--8-----------------|
G|---------------------------------------------------------------------------------|
D|---------------------------------------------------------------------------------|


D|--------------------------------------------------------------------------|
A|--------------------------------------------------------------------------|
F|-14--------------14-------------14-------------14-------------------------|
C|-----14-15-17-15----14-15-17-15----14-15-17-15----14-15-17-15---15---14---|
G|--------------------------------------------------------------------------|
D|--------------------------------------------------------------------------|

5:01


D|-------------------------------------------------------|
A|-------------------------------------------------------|
F|-7------------7------------7------------10---9---7-----|
C|---8-7-8-10-8---8-7-8-10-8---8-7-8-10-8----7---7---7---|
G|-------------------------------------------------------|
D|-------------------------------------------------------|


D|---------------------------------------------17----15----13----|
A|---------------------------------------------------------------|
F|---------------------------14----------------------------------|
C|------------------------------15-14-15-17-15----15----15----15-|
G|---------------------------------------------------------------|
D|---------------------------------------------------------------|


D|-------------------------------------------------|
A|--///-----------///--///----///-------///--///---|
F|--12-------------10---9-----10---------9----7----|
C|-------------------------------------------------|
G|-------------------------------------------------|
D|-------------------------------------------------|


D|-------------------------------------------------|
A|-///-----------///--///----///-------///---///---|
F|--17------------15--14-----15---------14---12----|
C|-------------------------------------------------|
G|-------------------------------------------------|
D|-------------------------------------------------|


D|---------------------------------------------------------------|
A|---------------------------------------------------------------|
F|---------------------------------------------------------------|
C|-8---------8----8---------8----8---------8----10-8-------------|
G|---8-10-12---12---8-10-12---12---8-10-12---12------12-10-8-----|
D|-----------------------------------------------------------12--|


D|-------------------------------------------------------------------|
A|-------------------------------------------------------------------|
F|-10----------10----10----------10----10----------10-9-7-----------|
C|----10-12-14----14----10-12-14----14----10-12-14---------10-8-7----|
G|----------------------------------------------------------------10-|
D|-------------------------------------------------------------------|
D|--------------------------------|
A|--------------------------------|
F|--------------------------------|
C|--------------------------------|
G|-7----8--5--7----------11-11----|
D|-5----6--3--5-----------9--9----|


D|-------------------------------------------------------|
A|-------------------------------------------------------|
F|-7------------7------------7------------10---9---7-----|
C|---8-7-8-10-8---8-7-8-10-8---8-7-8-10-8----7---7---7---|
G|-------------------------------------------------------|
D|-------------------------------------------------------|


D|------------------------------------------------------17----15----13-----|
A|-------------------------------------------------------------------------|
F|-14----------------14----------------14----------------------------------|
C|----15-14-15-17-15----15-14-15-17-15----15-14-15-17-15----15----15----15-|
G|-------------------------------------------------------------------------|
D|-------------------------------------------------------------------------|


D|-------------------------------------------------|
A|--///-----------///--///----///-------///--///---|
F|--12-------------10---9-----10---------9----7----|
C|-------------------------------------------------|
G|-------------------------------------------------|
D|-------------------------------------------------|


D|-------------------------------------------------|
A|-///-----------///--///----///-------///---///---|
F|--17------------15--14-----15---------14---12----|
C|-------------------------------------------------|
G|-------------------------------------------------|
D|-------------------------------------------------|


D|---------------------------------------------------------------|
A|---------------------------------------------------------------|
F|---------------------------------------------------------------|
C|-8---------8----8---------8----8---------8----10-8-------------|
G|---8-10-12---12---8-10-12---12---8-10-12---12------12-10-8-----|
D|-----------------------------------------------------------12--|


D|-------------------------------------------------------------------|
A|-------------------------------------------------------------------|
F|-10----------10----10----------10----10----------10-9-7-----------|
C|----10-12-14----14----10-12-14----14----10-12-14---------10-8-7----|
G|----------------------------------------------------------------10-|
D|-------------------------------------------------------------------|
D|-------------------------------------------------------|
A|-------------------------------------------------------|
F|-------------------------------------------------------|
C|-----------------------------------------10--10--10----|
G|-7-----8--5--7-----8--5--7----8----10-----8---8---8----|
D|-5-----6--3--5-----6--3--5----6-----8------------------|

5:35 RYTHM IS SAME FROM :40


D|----------------------------------------|
A|----------------------------------/-----|
F|-9------9--10-9--8--9---12---13-+-/-----|
C|---V-V----------------------------------|
G|----------------------------------------|
D|----------------------------------------|

_____ __ ________


D|-12-12-13-11------^-----/ -----/ ---/ -------------|
A|-------------13-10-13-12-13-12-10-12-10-9-9-10-12-10-9------------|
F|-------------------------------------------------------10-9-9~----|
C|------------------------------------------------------------PH----|
G|------------------------------------------------------------------|
D|------------------------------------------------------------------|

_______________


D|--/ --^--7--^--7--^--7-^-----|
A|-5-0-6-5-0-6-5-0-6-5/--9-6---9-6---9-6--9-6-9/-|
F|-----------------------------------------------|
C|-----------------------------------------------|
G|-----------------------------------------------|
D|-----------------------------------------------|

/// /// /// /// /// /// )~~


D|-12----13----16----17----19----17-----------16-17-18-19-|
A|-12----12----16----16----16----16--16-17-19-------------|
F|--------------------------------------------------------|
C|--------------------------------------------------------|
G|--------------------------------------------------------|
D|--------------------------------------------------------|
D|--------------------------___-----___---------|
A|--------------^----------/ ---/ --------|
F|-/9---9~---9-9-10-9--9--7-9-7-5-5-7-5-4-4~~~--|
C|----------------------------------------------|
G|----------------------------------------------|
D|----------------------------------------------|

[)(]


D|---------7--------12-----------)--------------------------------------11-12-14--|
A|-----5-8---8-

To play the most songs, including The Night at Catafalque Manor by Cradle of Filth by ukulele, the most crucial basic ukulele chords to learn are C chord, D chord, G chord, and Em chord.
These set you up to play a many of songs, and each of them is easy to learn.

If you are looking for A Dream of Wolves in the Snow ukulele chords, you have come to the best place.
You can play versatile instrument A Dream of Wolves in the Snow using ukulele or guitar.
This song by Cradle of Filth can also be played by that instruments.
=

A Dream of Wolves in the Snow chords has rhythm and included in The Principle of Evil Made Flesh (1994) album.
You can also get other musical style, including jazz ukulele chords, country music ukulele chords, pop ukulele chords, world music ukulele chords, and rock ukulele chords here.

A Dream of Wolves in the Snow by Cradle of Filth Ukulele Chords


Gtr I (D G C F A D) – ‘Untitled’
Gtr II (D G C F A D) – ‘Untitled’
Gtr III (D G C F A D) – ‘Untitled’
Gtr IV (D G C F A D) – ‘Untitled’
Gtr V (D G C F A D) – ‘Untitled’

Intro
Slow Gothic Metal Q65

[4/4] Gtr V
S S S S S S S S S S S S S S S S

||———————————————-|
||o—11-12-11—11-12-11—11-12-11—11-12-11-|
||–9———-9———-9———-9———-|
||———————————————-|
||o———————————————|
||———————————————-|

|
| Gtr II
| W

||———————————————-|
||o———————————————|
||———————————————-|
||–2——————————————-|
||o-2——————————————-|
||–0——————————————-|

[Bb5/F] S S S S S S S S S S S S S S S S

|————————————————-|
|—-12-13-12—-12-13-12—-12-13-12—-12-13-12-|
|-10———-10———-10———-10———-|
|————————————————-|
|————————————————-|
|————————————————-|

|
| W

|————————————————-|
|————————————————-|
|————————————————-|
|–3———————————————-|
|–1———————————————-|
|–1———————————————-|


[4/4] S S S S S S S S S S S S S S S S

|———————————————|
|—11-12-11—11-12-11—11-12-11—11-12-11-|
|-9———-9———-9———-9———-|
|———————————————|
|———————————————|
|———————————————|

|
| W

|———————————————|
|———————————————|
|———————————————|
|-2——————————————-|
|-2——————————————-|
|-0——————————————-|

[D#5/Bb]S S S S S S S S S S S S S S S S

|———————————————–||
|—10-11-10—10-11-10—10-11-10—10-11-10–o||
|-8———-8———-8———-8————||
|———————————————–||
|———————————————-o||
|———————————————–||

|
| W

|———————————————–||
|———————————————-o||
|-3———————————————||
|-1———————————————||
|-1——————————————–o||
|———————————————–||

Q60
Gtr IV
S S S S S S S S S S S S S S S S

||—————————————–||
||o—————————————o||
||—-9-7—————-9-7—————||
||–7—–10-9-10-9-10-7—–10-9-10-9-10–||
||o—————————————o||
||—————————————–||

|
| Gtr II
| W

||—————————————–||
||o—————————————o||
||—————————————–||
||—————————————–||
||o—————————————o||
||—————————————–||

Verse
Gtr I
S S S S S S S S S S S S S S S S

|-||———————————-|
|-||o———————————|
|-||———————————-|
|-||———————————-|
|-||o—7-5————-7-5———–|
|-||–5—–8-7-8-7-8-5—–8-7-8-7-8-|

|
| Gtr II
| H H

|-||———————————-|
|-||o———————————|
|-||———————————-|
|-||———————————-|
|-||o-7—————5—————|
|-||–5—————3—————|

Interlude
Gtr V
S S S S S S S S S S S S S S S S 4x W H E E E E

|———————————-||———–|—————-|
|———————————o||———–|—————-|
|———————————-||———–|——–9-7—–|
|———————————-||———–|————10–|
|—7-5————-7-5———–o||———–|—————-|
|-5—–8-7-8-7-8-5—–8-7-8-7-8–||———–|—————-|

|
| Gtr II
| H Q Q 4x H H H Q E E

|———————————-||———–|—————-|
|———————————o||———–|—————-|
|———————————-||———–|—————-|
|—————–7—————-||———–|——7—5–4–|
|-3—————5——-5——-o||-7—-5—-|-3—-5—3–2–|
|-1———————–3——–||-5—-3—-|-1————–|

Q. E Q. E E E E E H

|—————|————————|
|—————|————————|
|—————|————————|
|-9—-9-7—-9-|-10-9-7—-7————|
|—————|——–10————–|
|—————|————————|

|
| H H H E. S S S S S

|—————|————————|
|—————|————————|
|—————|————————|
|—————|———–7————|
|-7——5——|–3——–5————|
|-5——3——|–1———–8-7-8-7-8-|

E E Q E E Q E E E E H

|—————–|———————–|
|—————–|———————–|
|-9-7—–10-9-7–|-9-7——————-|
|—–10———-|—–10-9-7————|
|—————–|———————–|
|—————–|———————–|

|
| H H H E. S S S S S

|—————–|———————–|
|—————–|———————–|
|—————–|———————–|
|—————–|———-7————|
|-7——–5——|-3——–5————|
|-5——–3——|-1———–8-7-8-7-8-|

Outro
Gtr I
S S S S S S S S S S S S S S S S

||———————————-|
||o———————————|
||———————————-|
||———————————-|
||o—7-5————-7-5———–|
||–5—–8-7-8-7-8-5—–8-7-8-7-8-|

|
| Gtr II
| H H

||———————————-|
||o———————————|
||———————————-|
||———————————-|
||o-7—————5—————|
||–5—————3—————|

S S S S S S S S S S S S S S S S 4x W +W

|———————————-||———-|——–|
|———————————o||———-|——–|
|———————————-||———-|——–|
|———————————-||———-|——–|
|—7-5————-7-5———–o||-7——–|-(7)—-|
|-5—–8-7-8-7-8-5—–8-7-8-7-8–||-5——–|-(5)—-|

|
| H Q Q 4x W +W

|———————————-||———-|——–|
|———————————o||———-|——–|
|———————————-||———-|——–|
|—————–7—————-||———-|——–|
|-3—————5——-5——-o||-7——–|-(7)—-|
|-1———————–3——–||-5——–|-(5)—-|

To play the most songs, including A Dream of Wolves in the Snow by Cradle of Filth by ukulele, the most important basic ukulele chords to learn are C chord, D chord, G chord, and Em chord.
These set you up to play a ton of songs, and each of them is easy to learn.

If you are searching for Carrion ukulele chords, you have come to the right site.
You can play versatile instrument Carrion using ukulele or guitar.
This song by Cradle of Filth can also be played by that instruments.
=

Carrion chords has rhythm and included in Damnation and a Day (2003) album.
You can also get other musical style, including jazz ukulele chords, country music ukulele chords, pop ukulele chords, world music ukulele chords, and rock ukulele chords here.

Carrion by Cradle of Filth Ukulele Chords


C R A D L E O F F I L T H

[-]
C A R R I O N

DAMNATION AND A DAY
(c) Sony Records – 2003

Tune down one step, then Drop D (to C)

Tempo 108 BPM
Time Signature 4/4


-----------------------------

PADDY MCMULLAN

Version 1.0
22nd February 2009


-----------------------

Tablature Symbols Used:

P.M… – Palm Mute
p – Pull-Off
h – Hammer-On
(/) – Legato Slide (Blank space indicates length of slide)
– Slide Down to/Down From (Blank space indicates length of slide)
/ – Slide Up To/Up From (Blank space indicates length of slide)
( ) – Ghost Note/Tied Note/Implied Note
REST – Rest and sustain rest for duration of blank space
|_3_| – Triplet Notes
|___(1) – Ending 1/2/3 etc.

Intro: Guitars 1 & 2 with Heavy Distortion (Play once)

Guitar 2 rests for the first 2 bars

1 |_3| |__3__| |_3| |__3__| |_3| |__3__| |_3| |__3__|


||--------------------------------------------------------------|
||--------------------------------------------------------------|
||--------------------------------------------------------------|
||--2--2--2--2--2--2--2--2--2--2--2--2--2--2--2--2--2--2--2--2--|
||--0--0--0--0--0--0--0--0--0--0--0--0--0--0--0--0--0--0--0--0--|
||--------------------------------------------------------------|

P.M……………………………………………….

2 |_3| |__3__| |_3| |__3__| |3| |__3__| |__3__|


|-----------------------------------------------------|
|-----------------------------------------------------|
|-----------------------------------------------------|
|--5--5--5--5--5--5--5--5--5--5--6--6--6--6--5--3--5--|
|--3--3--3--3--3--3--3--3--3--3--0--0--0--0--0--0--0--|
|-----------------------------------------------------|

………………………………………….

3 |_3| |__3__| |_3| |__3__| |_3| |__3__| |_3| |__3__|


|--------------------------------------------------------------|
|--------------------------------------------------------------|
|--------------------------------------------------------------|
|--2--2--2--2--2--2--2--2--2--2--2--2--2--2--2--2--2--2--2--2--|
|--0--0--0--0--0--0--0--0--0--0--0--0--0--0--0--0--0--0--0--0--|
|--------------------------------------------------------------|

………………………………………………….


|--------------------------|
|--------------------------|
|--------------------------|
|--5--6--------------2--3--|
|--3--4--5--6--3--4--0--1--|
|--------5--6--3--4--------|

5 |_3| |__3__| |_3| |__3__| |_3| |__3__| |_3| |__3__|


|--------------------------------------------------------------|
|--------------------------------------------------------------|
|--------------------------------------------------------------|
|--2--2--2--2--2--2--2--2--2--2--2--2--2--2--2--2--2--2--2--2--|
|--0--0--0--0--0--0--0--0--0--0--0--0--0--0--0--0--0--0--0--0--|
|--------------------------------------------------------------|

………………………………………………….

6 |_3| |__3__| |_3| |__3__| |3| |__3__| |__3__|


|--------------------------------------------------------|
|--------------------------------------------------------|
|--------------------------------------------------------|
|--5--5--5--5--5--5--5--5--5--5--6--6--6--6--6--5--3--5--|
|--3--3--3--3--3--3--3--3--3--3--0--0--0--0--0--0--0--0--|
|--------------------------------------------------------|

…………………………………………….

7 |_3| |__3__| |_3| |__3__| |_3| |__3__| |_3| |__3__|


|----------------------------------------------------------------|
|----------------------------------------------------------------|
|----------------------------------------------------------------|
|--2--2--2--2--2--2-2--2--2--2--2--2--2--2--2--2--2--2--2--2--2--|
|--0--0--0--0--0--0-0--0--0--0--0--0--0--0--0--0--0--0--0--0--0--|
|----------------------------------------------------------------|

……………………………………………………

8


|--------------------------|
|--------------------------|
|--------------------------|
|--5--6--------------2--3--|
|--3--4--5--6--3--4--0--1--|
|--------5--6--3--4--------|

9 |__3__| |__3__| |__3__| |__3__| |__3__| |__3__| |__3__| |__3__|


|--------------------------------------------------------------------------|
|--------------------------------------------------------------------------|
|--------------------------------------------------------------------------|
|--2--2--2--2--2--2--2--2--2--2--2--2--2--2--2--2--2--2--2--2--2--2--2--2--|
|--0--0--0--0--0--0--0--0--0--0--0--0--0--0--0--0--0--0--0--0--0--0--0--0--|
|--------------------------------------------------------------------------|

…………………………………………………………….

10 |__3__| |__3__| |__3__|


|---------------------------------------|
|---------------------------------------|
|---------------------------------------|
|--5----2--2--2--2--2--2--6----5--3--5--|
|--3----0--0--0--0--0--0--0----0--0--0--|
|---------------------------------------|

…………….

11 |__3__| |__3__| |__3__| |__3__| |__3__| |__3__|


|-------------------------------------------------------------|
|-------------------------------------------------------------|
|-------------------------------------------------------------|
|--2----2--2--2--2--2--2--2--2--2--2--2--2--2--2--2--2--2--2--|
|--0----0--0--0--0--0--0--0--0--0--0--0--0--0--0--0--0--0--0--|
|-------------------------------------------------------------|

…………………………………………….

12 |__3__|


|--------------------------------|
|--------------------------------|
|--------------------------------|
|--5--6--------------2--2--2--3--|
|--3--4--5--6--3--4--0--0--0--1--|
|--------5--6--3--4--------------|

…….


|-------------------|----------------------|-------------------|
|-------------------|----------------------|-------------------|
|-------------------|----------------------|-------------------|
|--2----------------|--5--------6----5--3--|--2----------------|
|--0----------------|--3--------0----0--0--|--0----------------|
|-------------------|----------------------|-------------------|

16 |__3__| |__3__| |__3__| |__3__|


|--------------------------------------------------||
|--------------------------------------------------||
|--------------------------------------------------||
|--5--5--5--6--------------------------2--2--2--3--||
|--3--3--3--4--5--5--5--6--3--3--3--4--0--0--0--1--||
|--------------5--5--5--6--3--3--3--4--------------||

……. ……. ……. …….

Verse: Guitars 1 & 2 (Play once)

Part 1: x 2


||----------------------------|--------------------------------------|
||----------------------------|--------------------------------------|
||----------------------------|--------------------------------------|
||----------------------------|--------------------------------------|
||--0------0--2--3------0--0--|--3--0--0--2--0--0--0--2--3--2--0--2--|
||--0------0--2--3------0--0--|--3--0--0--2--0--0--0--2--3--2--0--2--|

…. …. …. …. …. ….

|______________________________(1)


|----------------------------|--------------------------------| |
|----------------------------|--------------------------------| |
|----------------------------|--------------------------------||
|----------------------------|--------------------------------||
|--0------0--2--3------0--0--|--3--0--0--2--0--0--2--8--7--6--| |
|--0------0--2--3------0--0--|--3--0--0--2--0--0--2--8--7--6--| |

…. …. …. ….

|______________________________(2)


|--------------------------------||
|--------------------------------||
|--------------------------------||
|--------------------------------||
|--3--0--0--2--0--0--2--9--8--7--||
|--3--0--0--2--0--0--2--9--8--7--||

…. ….

Part 2: x 2


||-------------------------|-------------------------|
||-------------------------|-------------------------|
||-------------------------|-------------------------|
||--6----7----6--7--9--10--|--6----7----6--7--10--9--|
||--4----5----4--5--7--8---|--4----5----4--5--8---7--|
||-------------------------|-------------------------|
|-------------------------|--------------------------------| |
|-------------------------|--------------------------------| |
|-------------------------|--------------------------------||
|--6----7----6--7--9--10--|--13---12---11--15--14--13--14--||
|--4----5----4--5--7--8---|--11---10---9---13--12--11--12--| |
|-------------------------|--------------------------------| |

Pre-Chorus 1.1: Guitars 1 & 2 (Play twice)


||----------------------------|--------------------------------------|
||----------------------------|--------------------------------------|
||----------------------------|--------------------------------------|
||----------------------------|--------------------------------------|
||--0------0--2--3------0--0--|--3--0--0--2--0--0--0--2--3--2--0--2--|
||--0------0--2--3------0--0--|--3--0--0--2--0--0--0--2--3--2--0--2--|

…. …. …. …. …. ….

|_____________________________________________________________(1)


|----------------------------|--------------------------------| |
|----------------------------|--------------------------------| |
|----------------------------|--------------------------------||
|----------------------------|--------------------------------||
|--0------0--2--3------0--0--|--3--0--0--2--0--0--2--8--7--6--| |
|--0------0--2--3------0--0--|--3--0--0--2--0--0--2--8--7--6--| |

…. …. …. ….

|__________________________________________________________(2)


|-----------------------------|-----------------------------||
|--------------------R- -|--------------------R- -||
|--------------------E- -|--------------------E- -||
|--------------------S- -|--------------------S- -||
|--3--0--0--2--0--0--T- -|--3--0--0--2--0--0--T- -||
|--3--0--0--2--0--0-----------|--3--0--0--2--0--0-----------||

…. …. …. ….

Pre-Chorus 1.2: Guitars 3 & 4 with Heavy Distortion (Play once)

Rest for 4 bars

Guitar 3:


||------------------------------|-------------------------------------|
||----------10-9-10~~-----------|-------------------------------------|
||--7~~-------------------10-9--|--10--12-10-12--9-7-9--10-9-10--10-9-|
||------------------------------|-------------------------------------|
||------------------------------|-------------------------------------|
||------------------------------|-------------------------------------|

…. …..


|-----------------------------------------------|
|-----------------10h 11-108-10~~-8------------|
|--10--9-7-9--7-9---------------------10-9-10~~-|
|-----------------------------------------------|
|-----------------------------------------------|
|-----------------------------------------------|
|-----------------17h 18-1715-17~~-15-------------||----------------------||
|---------------------------------------18-17-18~~-||-------R- -||
|--10--9-7-9--7-9----------------------------------||-------E- -||
|--------------------------------------------------||--x --S- -||
|--------------------------------------------------||--x --T- -||
|--------------------------------------------------||--x -----------------||

Guitar 4:


||--------------------------|--------------------------------|
||--------------------------|--------------------------------|
||--------------------------|--------------------------------|
||--0------7-6-7------3--2--|--3--5--3--5--2-0-2--3-2-3--3-2-|
||--------------------------|--------------------------------|
||--------------------------|--------------------------------|

…. ….


----------------------------------------|
----------------------------------------|
----------------------------------------|
--3--2-0-2--0-2-7h 8-75-7~~-5--3-2-3~~-|
----------------------------------------|
----------------------------------------|
|----------------------------------------||----------------------||
|----------------------------------------||-------R- -||
|----------------------------------------||-------E- -||
|--3--2-0-2--0-2-7h 8-75-7~~-5--3-2-3~~-||--x --S- -||
|----------------------------------------||--x --T- -||
|----------------------------------------||--x -----------------||

All guitars rest for 4 bars

Chorus: Guitars 1 & 2 (Play twice)

Guitar 1:


||--------------------------------------------------|
||--------------------------------------------------|
||--------------------------------------------------|
||--6--6--6--6--6--6--6--6--7--7--7--7--7--7--7--7--|
||--4--4--4--4--4--4--4--4--5--5--5--5--5--5--5--5--|
||--------------------------------------------------|

……………………………………….


|--------------------------------------------------| |
|--------------------------------------------------| |
|--------------------------------------------------||
|--2--2--2--2--2--2--2--2--9--9--9--9--9--9--9--9--||
|--0--0--0--0--0--0--0--0--7--7--7--7--7--7--7--7--| |
|--------------------------------------------------| |

……………………………………….

Guitar 2:


||--------------------------------------------------|
||--------------------------------------------------|
||--------------------------------------------------|
||--11-11-11-11-11-11-11-11-11-11-11-11-11-11-11-11-|
||--11-11-11-11-11-11-11-11-12-12-12-12-12-12-12-12-|
||--------------------------------------------------|

………………………………………..


|--------------------------------------------------| |
|--------------------------------------------------| |
|--------------------------------------------------||
|--9--9--9--9--9--9--9--9--9--9--9--9--9--9--9--9--||
|--7--7--7--7--7--7--7--7--11-11-11-11-11-11-11-11-| |
|--------------------------------------------------| |

………………………………………..

Guitars 1 & 2 play the Intro from bar 9 to 12 twice, and then from bar 13 to 16

Guitars 1, 2, 3 & 4 play the Pre-Chorus once

Rest for 12 bars

Guitars 1 & 2 play Part 2 of the Verse once

Guitars 1, 2, 3 & 4 play the Pre-Chorus once

Rest for 4 bars

Guitars 1 & 2 play the Chorus twice

Outro: Guitars 1 & 2

The Outro consists of the following sections of the Intro:

Bars 9 – 12 x 3
Bar 12 x 2

End on the following:


||-------------||
||-----R- -||
||-----E- -||
||--2--S- -||
||--0--T- -||
||-------------||

Tab summary: Intro x 1
Verse x 1
Pre-Chorus x 1
Chorus x 2
Intro:
Bars 9 – 12 x 2
Bars 13 – 16 x 1
Verse x 2
Pre-Chorus x 1
Verse (Part 2) x 1
Pre-Chorus x 1
Chorus x 2
Outro:
Intro bars 9 – 12 x 3
Intro bar 12 x 2
END

To play the most songs, including Carrion by Cradle of Filth by ukulele, the most crucial basic ukulele chords to learn are C chord, D chord, G chord, and Em chord.
These set you up to play a ton of songs, and each of them is easy to master.

If you are looking for Lilith Immaculate ukulele chords, you’ve come to the right place.
You can play versatile instrument Lilith Immaculate using ukulele or guitar.
This song by Cradle of Filth can also be played by that instruments.
=

Lilith Immaculate chords has rhythm and included in Darkly, Darkly, Venus Aversa (2010) album.
You can also get another musical genres, including jazz ukulele chords, country music ukulele chords, pop ukulele chords, world music ukulele chords, and rock ukulele chords here.

Lilith Immaculate by Cradle of Filth Ukulele Chords


Cradle of Filth

dgcfad

palm mute
^hammer on/off

——————————————————————–|
——————————————————————–|
——————————————————————–|
———————————————-_———————|
-2222222222222222-5——6-6—————–/ —————-/–|
-0000000000000000-3-1111-4-4–777777777777-107107-666666666666-9696-|

——————————————————————–|
——————————————————————–|
——————————————————————–|
———————————————-_———————|
-2222222222222222-5——6-6—————–/ —————-/–|
-0000000000000000-3-1111-4-4–777777777777-107107-666666666666-9696-|

——————————————————————–|
——————————————————————–|
——————————————————————–|
———————————————-_———————|
-2222222222222222-5——6-6—————–/ —————-/–|
-0000000000000000-3-1111-4-4–777777777777-107107-666666666666-9696-|

——————————————————————–|
——————————————————————–|
——————————————————————–|
———————————————-_———————|
-2222222222222222-5——6-6—————–/ —————-/–|
-0000000000000000-3-1111-4-4–777777777777-107107-666666666666-9696-|

0:24

————————————————————-|
————————————————————-|
————————————————————-|
-8888-10101010-8888-10101010-11111111-10101010-8888-10101010-|
-8888–8-8-8-8-8888–8-8-8-8–8-8-8-8–8-8-8-8-8888–8-8-8-8-|
————————————————————-|
————————————————————-|
————————————————————-|
————————————————————-|
-8888-10101010-8888-10101010-11111111-10101010-8888-10101010-|
-8888–8-8-8-8-8888–8-8-8-8–8-8-8-8–8-8-8-8-8888–8-8-8-8-|
————————————————————-|
———————————————————————–|
———————————————————————–|
———————————————————————–|
11111111-13131313-11111111-13131313-14141414-13131313-11111111-13131313|
11111111-11111111-11111111-11111111-11111111-11111111-11111111-11111111|
———————————————————————–|
————————————————————–|
————————————————————–|
————————————————————–|
-9999-11111111-9999-11111111-13131313-11111111-9999-11111111–|
-9999–9-9-9-9-9999–9-9-9-9–9-9-9-9–9-9-9-9-9999–9-9-9-9–|
————————————————————–|
————————————————————-|
————————————————————-|
————————————————————-|
-8888-10101010-8888-10101010-11111111-10101010-8888-10101010-|
-8888–8-8-8-8-8888–8-8-8-8–8-8-8-8–8-8-8-8-8888–8-8-8-8-|
————————————————————-|
————————————————————-|
————————————————————-|
————————————————————-|
-8888-10101010-8888-10101010-11111111-10101010-8888-10101010-|
-8888–8-8-8-8-8888–8-8-8-8–8-8-8-8–8-8-8-8-8888–8-8-8-8-|
————————————————————-|
———————————————————————–|
———————————————————————–|
———————————————————————–|
11111111-13131313-11111111-13131313-14141414-13131313-11111111-13131313|
11111111-11111111-11111111-11111111-11111111-11111111-11111111-11111111|
———————————————————————–|
————————————————————–|
————————————————————–|
————————————————————–|
-9999-11111111-9999-11111111-13131313-11111111-9999-11111111–|
-9999–9-9-9-9-9999–9-9-9-9–9-9-9-9–9-9-9-9-9999–9-9-9-9–|
————————————————————–|

0:48

———————————————–|
———————————————–|
———————-9-9-9-8-8-8-7-7-7-8-8-8–|
-7-7-7-9-9-9-10-10-10-7-7-7-7-7-7-7-7-7-7-7-7–|
-0-0-0-0-0-0-0–0–0–0-0-0-0-0-0-0-0-0-0-0-0–|
———————————————–|
—————————————————————–|
—————————————————————–|
———————-9-9-9————————————–|
-7-7-7-9-9-9-10-10-10-7-7-7-10–101010-9-10-10-10–101010-9-10-9-|
-0-0-0-0-0-0–0–0–0-0-0-0–8—8-8-8-7–8–8–8—8-8-8-7–8-7-|
—————————————————————–|
———————————————–|
———————————————–|
———————-9-9-9-8-8-8-7-7-7-8-8-8–|
-7-7-7-9-9-9-10-10-10-7-7-7-7-7-7-7-7-7-7-7-7–|
-0-0-0-0-0-0-0–0–0–0-0-0-0-0-0-0-0-0-0-0-0–|
———————————————–|
—————————————————————–|
—————————————————————–|
———————-9-9-9————————————–|
-7-7-7-9-9-9-10-10-10-7-7-7-10–101010-9-10-10-10–101010-9-10-9-|
-0-0-0-0-0-0–0–0–0-0-0-0–8—8-8-8-7–8–8–8—8-8-8-7–8-7-|
—————————————————————–|

1:12

————————————————|
————————————————|
————————————————|
————————————————|
——-7———7———-5————^——|
-5~——-5–4~—–4–2~——2–4–5–454–2–|
————————————————|
————————————————|
————————————————|
————————————————|
——-7———7———-5————^——|
-5~——-5–4~—–4–2~——2–4–5–454–2–|
————————————————|
————————————————|
————————————————|
————————————————|
——-7———7———-5————^——|
-5~——-5–4~—–4–2~——2–4–5–454–2–|
————————————————–|
————————————————–|
————————————————–|
————————————————9-|
——-7———7———-5————^——7-|
-5~——-5–4~—–4–2~——2–4–5–454–2–7|

1:36

—————————————————-|
—————————————————-|
—————————————————-|
——————————_———————|
–5——6-6—————–/ —————-/–|
–3-1111-4-4–777777777777-107107-666666666666-9696-|

——————————————————————–|
——————————————————————–|
——————————————————————–|
———————————————-_———————|
-2222222222222222-5——6-6—————–/ —————-/–|
-0000000000000000-3-1111-4-4–777777777777-107107-666666666666-9696-|

——————————————————————–|
——————————————————————–|
——————————————————————–|
———————————————-_———————|
-2222222222222222-5——6-6—————–/ —————-/–|
-0000000000000000-3-1111-4-4–777777777777-107107-666666666666-9696-|

——————————————————————|
——————————————————————|
——————————————————————|
———————————————-_——————-|
-2222222222222222-5——6-6—————–/ —————8–|
-0000000000000000-3-1111-4-4–777777777777-107107-666666666666-6|-|

2:00

————————————————————-|
————————————————————-|
————————————————————-|
-8888-10101010-8888-10101010-11111111-10101010-8888-10101010-|
-8888–8-8-8-8-8888–8-8-8-8–8-8-8-8–8-8-8-8-8888–8-8-8-8-|
————————————————————-|
————————————————————-|
————————————————————-|
————————————————————-|
-8888-10101010-8888-10101010-11111111-10101010-8888-10101010-|
-8888–8-8-8-8-8888–8-8-8-8–8-8-8-8–8-8-8-8-8888–8-8-8-8-|
————————————————————-|
———————————————————————–|
———————————————————————–|
———————————————————————–|
11111111-13131313-11111111-13131313-14141414-13131313-11111111-13131313|
11111111-11111111-11111111-11111111-11111111-11111111-11111111-11111111|
———————————————————————–|
————————————————————–|
————————————————————–|
————————————————————–|
-9999-11111111-9999-11111111-13131313-11111111-9999-11111111–|
-9999–9-9-9-9-9999–9-9-9-9–9-9-9-9–9-9-9-9-9999–9-9-9-9–|
————————————————————–|
————————————————————-|
————————————————————-|
————————————————————-|
-8888-10101010-8888-10101010-11111111-10101010-8888-10101010-|
-8888–8-8-8-8-8888–8-8-8-8–8-8-8-8–8-8-8-8-8888–8-8-8-8-|
————————————————————-|
————————————————————-|
————————————————————-|
————————————————————-|
-8888-10101010-8888-10101010-11111111-10101010-8888-10101010-|
-8888–8-8-8-8-8888–8-8-8-8–8-8-8-8–8-8-8-8-8888–8-8-8-8-|
————————————————————-|
———————————————————————–|
———————————————————————–|
———————————————————————–|
11111111-13131313-11111111-13131313-14141414-13131313-11111111-13131313|
11111111-11111111-11111111-11111111-11111111-11111111-11111111-11111111|
———————————————————————–|
————————————————————–|
————————————————————–|
————————————————————–|
-9999-11111111-9999-11111111-13131313-11111111-9999-11111111–|
-9999–9-9-9-9-9999–9-9-9-9–9-9-9-9–9-9-9-9-9999–9-9-9-9–|
————————————————————–|

2:24

———————————————–|
———————————————–|
———————-9-9-9-8-8-8-7-7-7-8-8-8–|
-7-7-7-9-9-9-10-10-10-7-7-7-7-7-7-7-7-7-7-7-7–|
-0-0-0-0-0-0-0–0–0–0-0-0-0-0-0-0-0-0-0-0-0–|
———————————————–|
—————————————————————–|
—————————————————————–|
———————-9-9-9————————————–|
-7-7-7-9-9-9-10-10-10-7-7-7-10–101010-9-10-10-10–101010-9-10-9-|
-0-0-0-0-0-0–0–0–0-0-0-0–8—8-8-8-7–8–8–8—8-8-8-7–8-7-|
—————————————————————–|
———————————————–|
———————————————–|
———————-9-9-9-8-8-8-7-7-7-8-8-8–|
-7-7-7-9-9-9-10-10-10-7-7-7-7-7-7-7-7-7-7-7-7–|
-0-0-0-0-0-0-0–0–0–0-0-0-0-0-0-0-0-0-0-0-0–|
———————————————–|
—————————————————————–|
—————————————————————–|
———————-9-9-9————————————–|
-7-7-7-9-9-9-10-10-10-7-7-7-10–101010-9-10-10-10–101010-9-10-9-|
-0-0-0-0-0-0–0–0–0-0-0-0–8—8-8-8-7–8–8–8—8-8-8-7–8-7-|
—————————————————————–|

2:48

———————————————————————-|
———————————————————————-|
———————————————————————-|
———————————————————————-|
-/7~—/9~-/10~-/6~–/10-9-10-12-10–3—5-3-2-3-2-2—3-2-0-10-9–|
———————————————————————-|
———————————————————————-|
———————————————————————-|
———————————————————————-|
———————————————————————-|
-/7~—/9~-/10~-/6~–/10-9-10-12-10–3—5-3-2-3-2-2—3-2-0-10-9–|
———————————————————————-|
———————————————————————-|
———————————————————————-|
———————————————————————-|
———————————————————————-|
-/7~—/9~-/10~-/6~–/10-9-10-12-10–3—5-3-2-3-2-2—3-2-0-10-9–|
———————————————————————-|
———————————————————————-|
———————————————————————-|
———11—12——————————————————|
———————————————————————-|
-/7~—/9–/10–/6~–/10-9-10-12-10–3—5-3-2-3-2-2—3-2-0-10-9–|
———————————————————————-|

———————————————————————-|
———————————————————————-|
———————————————————————-|
———————————————————————-|
-/7~—/9~-/10~-/6~–/10-9-10-12-10–3—5-3-2-3-2-2—3-2-0-10-9–|
———————————————————————-|

———————————————————————-|
———————————————————————-|
————————5–4–5–7–4–5—7-5-4-5-4-4—5-4—4——|
-/5~—/9~-/9~-/4~—————————————-7—7—-|
———————————————————————-|
———————————————————————-|

———————————————————————-|
———————————————————————-|
———————————————————————-|
———————————————————————-|
-/7~—/9~-/10~-/6~–/10-9-10-12-10–3—5-3-2-3-2-2—3-2-0-10-9–|
———————————————————————-|

———————————————————————-|
———————————————————————-|
————————5–4–5–7–4–5—7-5-4-5-4-4—5-4—4——|
-/5~—/9~-/9~-/4~—————————————-7—7—-|
———————————————————————-|
———————————————————————-|

4:00

————————————————|
————————————————|
————————————————|
————————————————|
——-7———7———-5————^——|
-5~——-5–4~—–4–2~——2–4–5–454–2–|
————————————————|
————————————————|
————————————————|
————————————————|
——-7———7———-5————^——|
-5~——-5–4~—–4–2~——2–4–5–454–2–|
————————————————|
————————————————|
————————————————|
————————————————|
——-7———7———-5————^——|
-5~——-5–4~—–4–2~——2–4–5–454–2–|
————————————————|
————————————————|
————————————————|
————————————————|
——-7———7———-5————^——|
-5~——-5–4~—–4–2~——2–4–5–454–2–|
————————————————|
————————————————|
————————————————|
————————————————|
——-7———7———-5————^——|
-5~——-5–4~—–4–2~——2–4–5–454–2–|
————————————————|
————————————————|
————————————————|
————————————————|
——-7———7———-5————^——|
-5~——-5–4~—–4–2~——2–4–5–454–2–|

4:36

SOLO

-/19~~~~~~~~~~~————————————–)————|
————————————-19–15~—18–14—-14~~~—|
——————————–15——————————–|
——————————————————————|
——————————————————————|
——————————————————————|

——————————————————————–|
——————————————————————–|
——————————————————————–|
———————————————-_———————|
——————5——6-6—————–/ —————-/–|
-0000000000000000-3-1111-4-4–777777777777-107107-666666666666-9696-|

4:42

1 ___

————————–/———/ —|
———————12-1112118-11-87-8-11-|
—–11——12—9————————–|
—9——10—-7—————————-|
-7——8————————————|
———————————————|

1 __________ __________ ________ _______

—/ —-/ —/ —/ —-____—–___—|
-12-15-12-0-12-0-11-12-11-0-11-0-8-11-8-0-87-7-8-7-0-7-0–/ —/ –|
———————————————————-7-10-7-0-6-7-6-0-|
—————————————————————————|
—————————————————————————|
—————————————————————————|

——————————————————————–|
——————————————————————–|
——————————————————————–|
———————————————-_———————|
——————5——6-6—————–/ —————-/–|
-0000000000000000-3-1111-4-4–777777777777-107107-666666666666-9696-|

4:48
1 __

—————————————————-/ ——|
-/6——————-8—–9———————-8–9-8—–|
————————————————————–|
————————————————————–|
————————————————————–|
————————————————————–|

————————————————————-|
————————————————————-|
————————————————————-|
-8888-10101010-8888-10101010-11111111-10101010-8888-10101010-|
-8888–8-8-8-8-8888–8-8-8-8–8-8-8-8–8-8-8-8-8888–8-8-8-8-|
————————————————————-|

————————————————————–|
————-6———————————8—9-9–/13—|
————————————————————–|
————————————————————–|
————————————————————–|
————————————————————–|

————————————————————-|
————————————————————-|
————————————————————-|
-8888-10101010-8888-10101010-11111111-10101010-8888-10101010-|
-8888–8-8-8-8-8888–8-8-8-8–8-8-8-8–8-8-8-8-8888–8-8-8-8-|
————————————————————-|

4:55

—————————————————–11—-12—-11—-|
—12———————————-14—12—14——————–|
—————————-13-13–15———————————-|
———————————————————————–|
———————————————————————–|
———————————————————————–|

———————————————————————–|
———————————————————————–|
———————————————————————–|
11111111-13131313-11111111-13131313-14141414-13131313-11111111-13131313|
11111111-11111111-11111111-11111111-11111111-11111111-11111111-11111111|
———————————————————————–|

1 T ^ T ^ T ^ T ^ T ^ T ^

-16-12-11-14-12-11-16-12-11-18-12-11-16-12-11-18-12-11-|
——————————————————-|
——————————————————-|
——————————————————-|
——————————————————-|
——————————————————-|

T ^ T ^ T ^ T ^ T ^ T ^

19-12-11-18-12-11-19-12-11-21-12-11-19-12-11-21-12-11-[20]-|
————————————————————|
————————————————————|
————————————————————|
————————————————————|
————————————————————|

————————————————————–|
————————————————————–|
————————————————————–|
-9999-11111111-9999-11111111-13131313-11111111-9999-11111111–|
-9999–9-9-9-9-9999–9-9-9-9–9-9-9-9–9-9-9-9-9999–9-9-9-9–|
————————————————————–|
————————————————————-|
————————————————————-|
————————————————————-|
-8888-10101010-8888-10101010-11111111-10101010-8888-10101010-|
-8888–8-8-8-8-8888–8-8-8-8–8-8-8-8–8-8-8-8-8888–8-8-8-8-|
————————————————————-|
————————————————————-|
————————————————————-|
————————————————————-|
-8888-10101010-8888-10101010-11111111-10101010-8888-10101010-|
-8888–8-8-8-8-8888–8-8-8-8–8-8-8-8–8-8-8-8-8888–8-8-8-8-|
————————————————————-|
———————————————————————–|
———————————————————————–|
———————————————————————–|
11111111-13131313-11111111-13131313-14141414-13131313-11111111-13131313|
11111111-11111111-11111111-11111111-11111111-11111111-11111111-11111111|
———————————————————————–|
————————————————————–|
————————————————————–|
————————————————————–|
-9999-11111111-9999-11111111-13131313-11111111-9999-11111111–|
-9999–9-9-9-9-9999–9-9-9-9–9-9-9-9–9-9-9-9-9999–9-9-9-9–|
————————————————————–|
———————————————–|
———————————————–|
———————-9-9-9-8-8-8-7-7-7-8-8-8–|
-7-7-7-9-9-9-10-10-10-7-7-7-7-7-7-7-7-7-7-7-7–|
-0-0-0-0-0-0-0–0–0–0-0-0-0-0-0-0-0-0-0-0-0–|
———————————————–|
—————————————————————–|
—————————————————————–|
———————-9-9-9————————————–|
-7-7-7-9-9-9-10-10-10-7-7-7-10–101010-9-10-10-10–101010-9-10-9-|
-0-0-0-0-0-0–0–0–0-0-0-0–8—8-8-8-7–8–8–8—8-8-8-7–8-7-|
—————————————————————–|
———————————————–|
———————————————–|
———————-9-9-9-8-8-8-7-7-7-8-8-8–|
-7-7-7-9-9-9-10-10-10-7-7-7-7-7-7-7-7-7-7-7-7–|
-0-0-0-0-0-0-0–0–0–0-0-0-0-0-0-0-0-0-0-0-0–|
———————————————–|
—————————————————————–|
—————————————————————–|
———————-9-9-9————————————–|
-7-7-7-9-9-9-10-10-10-7-7-7-10–101010-9-10-10-10–101010-9-10-9-|
-0-0-0-0-0-0–0–0–0-0-0-0–8—8-8-8-7–8–8–8—8-8-8-7–8-7-|
—————————————————————–|
———————————————–|
———————————————–|
———————-9-9-9-8-8-8-7-7-7-8-8-8–|
-7-7-7-9-9-9-10-10-10-7-7-7-7-7-7-7-7-7-7-7-7–|
-0-0-0-0-0-0-0–0–0–0-0-0-0-0-0-0-0-0-0-0-0–|
———————————————–|
—————————————————————–|
—————————————————————–|
———————-9-9-9————————————–|
-7-7-7-9-9-9-10-10-10-7-7-7-10–101010-9-10-10-10–101010-9-10-9-|
-0-0-0-0-0-0–0–0–0-0-0-0–8—8-8-8-7–8–8–8—8-8-8-7–8-7-|
—————————————————————–|
———————————————–|
———————————————–|
———————-9-9-9-8-8-8-7-7-7-8-8-8–|
-7-7-7-9-9-9-10-10-10-7-7-7-7-7-7-7-7-7-7-7-7–|
-0-0-0-0-0-0-0–0–0–0-0-0-0-0-0-0-0-0-0-0-0–|
———————————————–|
———————————————————————|
———————————————————————|
———————-9-9-9——————————————|
-7-7-7-9-9-9-10-10-10-7-7-7-10–101010-9-10-10-10–101010-9-10-9—–|
-0-0-0-0-0-0–0–0–0-0-0-0–8—8-8-8-7–8–8–8—8-8-8-7–8-7–7–|
——————————————————————5–|

To play the this songs, including Lilith Immaculate by Cradle of Filth by ukulele, the most important basic ukulele chords to learn are C chord, D chord, G chord, and Em chord.
These set you up to play a a lot of songs, and each of them is easy to master.

If you are searching for The Black Goddess Rises ukulele chords, you have come to the best place.
You can play versatile instrument The Black Goddess Rises using ukulele or guitar.
This song by Cradle of Filth can also be played by that instruments.
=

The Black Goddess Rises chords has rhythm and included in The Principle of Evil Made Flesh (1994) album.
You can also get another musical style, including jazz ukulele chords, country music ukulele chords, pop ukulele chords, world music ukulele chords, and rock ukulele chords here.

The Black Goddess Rises by Cradle of Filth Ukulele Chords

Band – Cradle Of Filth
Song – The Black goddess Rises
Album – Bitter Suites to Succubi

~ – Let Ring
/ – Slide
h – Hammer on
p – Pull off
” – Shred
PM – Palm mute
. – Do not let ring
// – pickscrape

INTRO –


E|-------------------|
B|-------------------|
G|-------------------|
D|--0~--1-3-1~-------| x4
A|--0~--1-3-1~--8/6~-|
D|--0~--1-3-1~--8/6~-|

PM . .


E|-------------------------|
B|-------------------------|
G|-------------------------|
D|-------------------------| x2
A|--5~--5-6-4~--5~--5-6----|
D|--5~----------5~------6~-|

Bridge –


E|--------------------------|
B|--------------------------|
G|--------------------------|
D|--------------------------| x1
A|--00.00.00.---00.00.00.---|
D|--00.00.00.---00.00.00.---|

Riff 1 –


E|---------------------------------------|
B|---------------------------------------|
G|---------------------------------------|
D|--//-3/4-000-3/4-000-3/4-000-78-57-45--| x6 (final 2 with no PM)
A|--//-3/4-000-3/4-000-3/4-000-78-57-45--|
D|--//-3/4-000-3/4-000-3/4-000-78-57-45--|

PM … … … .. .. ..

[Drum Fill]

Riff 2 –


E|-----------------------------------|
B|-----------------------------------|
G|-----------------------------------|
D|--8--8--8--8-----8--8----78-57-45--| x1
A|--6--6--6--6-----6--6----78-57-45--|
D|---00-00-00--910--00--00-78-57-45--|

PM .. .. .. . . .. .. .. .. ..

Riff 3 –


E|---------------------------------------------------------|
B|---------------------------------------------------------|
G|---------------------------------------------------------|
D|-----------------------------------------------78-57-45--| x2
A|--6-----------------10-9-10-6------------------78-57-45--|
D|---00-000-00-000-00-----------00-000-00-000-00-78-57-45--|

PM .. … .. … .. .. … .. … .. .. .. ..

Riff 4 –


E|-------------------------------------|
B|-------------------------------------|
G|-------------------------------------|
D|---------------------------78-57-45--| x4
A|--6--6--6--10-9-10-6--6----78-57-45--|
D|---00-00-00---------00--00-78-57-54--|

PM .. .. .. .. .. .. .. ..

Riff 5 –


E|----------------------------------|
B|----------------------------------|
G|----------------------------------|
D|----------------------------------| x2
A|--5"--------------5"--------------|
D|------7"-6"-0"--------8"-7"-6"----|

[Riff 3]
[Riff 4]
[Riff 5]

[Instrumental Break for two bars]

Riff 6 –


E|--------------------------------------------|
B|--------------------------------------------|
G|--------------------------------------------|
D|--------------------------------------------| x2
A|--5~--5-7-5-3~--3h5p3-----------------------|
D|----------------------5~--5-7-8~--87-870~---|

Riff 7 –


E|-----------------------------|
B|-----------------------------|
G|-----------------------------|
D|--023~-3335~-5557~-7777777---| x4
A|--023~-3335~-5557~-7777777---|
D|--023~-3335~-5557~-7777777---|

PM .. . . . . . . . .

[Riff 6]
[Riff 7]

Riff 8 –


E|-------------------|
B|-------------------|
G|-------------------|
D|-------------------| x1
A|--0-0-0-0-0-0-0-0--|
D|--0-0-0-0-0-0-0-0--|

Riff 9 [Guitar 1] –


E|-------------------|
B|-------------------|
G|-------------------|
D|-------------------|
A|--0-0-0-0-0-0-0-0--|
D|--0-0-0-0-0-0-0-0--|

Riff 9 [Guitar 2]-


E|----------------------------------------------------------------|
B|----------------------------------------------------------------|
G|----------------------------------------------------------------|
D|----------------------------------------------------------------|
A|--5~-8-7-3~----7~----5~-8-7-3~-----3~----5~-8-7-10-12~-8~-10~---|
D|-------------7~-----------------7~------------------------------|

Bridge 2 –


E|------------------------------------|
B|------------------------------------|
G|------------------------------------|
D|--1----1----1----1------1----1------|
A|--1----1----1----1-1h2--1----1------|
D|--1-00-1-00-1-00-1------1-00-1-00---|

[Riff 3]
[Riff 4]
[Riff 5]


E|--------------------------------------|
B|--------------------------------------|
G|--------------------------------------|
D|--3/4-000-3/4-000-3/4-000-78-57-45-00-|
A|--3/4-000-3/4-000-3/4-000-78-57-45-00-|
D|--3/4-000-3/4-000-3/4-000-78-57-45-00-|

PM … … … .. .. .. ..

END [PLEASE RATE THIS TAB]

To play the most songs, including The Black Goddess Rises by Cradle of Filth by ukulele, the most important basic ukulele chords to learn are C chord, D chord, G chord, and Em chord.
These set you up to play a many of songs, and each of them is easy to learn.

If you are looking for Lovesick for Mina ukulele chords, you already visit to the right site.
You can play versatile instrument Lovesick for Mina using ukulele or guitar.
This song by Cradle of Filth can also be played by that instruments.
=

Lovesick for Mina chords has rhythm and included in Thornography (2006) album.
You can also get another musical genres, including jazz ukulele chords, country music ukulele chords, pop ukulele chords, world music ukulele chords, and rock ukulele chords here.

Lovesick for Mina by Cradle of Filth Ukulele Chords

_____________________________________________________________
Cradle Of Filth
Lovesick For Mina
Thornography
______________________________________________________________

[Riff 1]


D|-------------------------------------------------------------------------|
A|-------------------------------------------------------------------------|
F|-------------------------------------------------------------------------|
C|10-9-10-7-10-9-10-7-10-9-10-12-10-9-10-7-10-9-10-7-10-9-10-7-4-6-7-2-4h6-|
G|-------------------------------------------------------------------------|
D|-------------------------------------------------------------------------|

PLAY THIS 4 times|END PLAYING THIS [Riff 2]


|--------------------------------------------------|--------------------|
|--------------------------------------------------|--------------------|
|--------------------------------------------------|--------------------|
|10-9-10-7-10-9-10-7-4-6-7-0-4h6-10-12-13----10h12-|----------------5~--|
|-----------------------------------------13-------|7~~~6~~~7~~~6~~~3~-3|
|--------------------------------------------------|5~~~4~~~5~~~4~~~---1|

Riff 3


|---------------------------11---------12-13-12---------------------------11-|
|13-12-10-12-13-12-10-12-13---12-9-12----------12-9-13-12-10-12-13-12-10-----|
|----------------------------------------------------------------------------|
|----------------------------------------------------------------------------|
|----------------------------------------------------------------------------|
-----------------------------------------------------------------------------|

[Riff 4]x3 [riff 5]x2


|--------13---------|--------------------|----------------------------------|
|12-9-12----14-9----|--------------------|----------------------------------|
|----------------10-|----------8---------|----------------------------------|
|-------------------|6-5-5-8-6-6-9-5-5-8-|--4-3-------4-7-6-4-6-4/3-----4-3-|
|-------------------|4-3-3-6-4---7-3-3-6-|2-2-1-4/5-2-2-5-4-2-4-2/1-2-2-2-1-|
|-------------------|--------------------|0-----2/3-0---------------0-0-----|

[Riff 6]x4


|--------------------|-----------------------------------------------------|
|--------------------|-----------------------------------------------------|
|--------------------|-----------------------------------------------------|
|--------------------|-----------------------------------------------------|
|4/5-2-x-2-x-5/4-5/4-|6-6-7-/6-7-6-6-6-9-7-6-7-6-6-7-/6-7-/6-9-9-10-/9-7/7-|
|2/3-0-x-0-x-3/2-3/2-|4-4-5-/4-5-4-4-4-7-5-4-5-4-4-5-/4-5-/4-7-7-8--/7-5/9-|

[Riff 7]x3 . . . . [Riff 8]x2


|----------------------------------|-----------------------------------------|
|----------------------------------|-----------------------------------------|
|----------------------------------|-----------------------------------------|
|7/9---7/9-----------9/7-7-7-3-3---|-----------------------------------------|
|5/7-2-5/7-2---------7/5-5-5-1-1-5-|2-2222-3-3-3-2-2222-5/6-5/3-2-2-2222-3-3-|
|----0-----0-0-2-3-0-------------3-|0-0000-1-1-1-0-0000-3/4-3/1-0-0-0000-1-1-|

. . . . …. …. ….


|--------------------|
|--------------------|
|--------------------|
|--------------------|
|3-2-2222------------|

|1-0-0000-3t4t3t1t0t-|
…. . . . . .

To play the most songs, including Lovesick for Mina by Cradle of Filth by ukulele, the most crucial basic ukulele chords to learn are C chord, D chord, G chord, and Em chord.
These set you up to play a many of songs, and each of them is easy to learn.

  • 1
  • 2