If you are looking for I Remember ukulele chords, you already come to the best site.
You can play versatile instrument I Remember using ukulele or guitar.
This song by Damien Rice can also be played by that instruments.
=

I Remember chords has rhythm and included in O (2002) album.
You can also get other musical style, including jazz ukulele chords, country music ukulele chords, pop ukulele chords, world music ukulele chords, and rock ukulele chords here.

I Remember by Damien Rice Ukulele Chords


Title: I Remember
Artist: Damien Rice
Album: “0”
Email: GuitarFret18@aol.com

This song is one of the best from the ablum and very easy
to learn. Fingerpicking half of it and the second part
chords. Put your guitar on Capo on 2nd fret.

A few notes not in but they’re easily picked out once you
learn this. Its easy fingerpicking so dont worry!

I Remember it well …..

[D/F#] [D/F#]


e:--------------------------------------------------------------|
B:--------------------------3---------------3-------------------|
G:--------0-------2------0----------------0---------0--------2--|
D:------0-------0------0----------------2-------0h2--------0----|
A:------------------------------0--2-h3------------------0------|
E:---0-------2-------3---------------------------------2--------|

[D/F#] [D/F#]


e:--------------------------------------------------------------|
B:---------------3----------------------------------------------|
G:-------------0---------0--2---------------0---2-----------0---|
D:-----------2-------0h2------0-----------0-------0-------0-----|
A:---0--2-h3--------------------0-------------------0---3-------|
E:--------------------------2-----0----3--------2---------------|

I Remember it well …..

[D/F#] [D/F#]


e:--------------------------------------------------------------|
B:--------------------------3---------------3-------------------|
G:--------0-------2------0----------------0---------0--------2--|
D:------0-------0------0----------------2-------0h2--------0----|
A:------------------------------0--2-h3------------------0------|
E:---0-------2-------3---------------------------------2--------|

[D/F#] [D/F#]


e:--------------------------------------------------------------|
B:---------------3----------------------------------------------|
G:-------------0---------0--2---------------0---2-----------0---|
D:-----------2-------0h2------0-----------0-------0-------0-----|
A:---0--2-h3--------------------0-------------------0---3-------|
E:--------------------------2-----0----3--------2---------------|

Won’t you hear tonight…..


e:------------------------------------|
B:-----------------3--------------3---|
G:-------0-------0--------------0-----|
D:---0h2-------0--------------2-------|
A:--------------------0-2-2h3---------|
E:----------3-------------------------|

Cause I can’t believe……
[D/F#]


e:---------------------------------------------|
B:-----------------3--------------3------------|
G:-------0-------0--------------0---------0----|
D:---0h2-------0--------------2-------0h2------|
A:--------------------0-2-2h3------------------|
E:----------3----------------------------------|

Won’t you hear….


e:------------------------------------|
B:-----------------3--------------3---|
G----------------0--------------0-----|
D:-------------0--------------2-------|
A:--------------------0-2-2h3---------|
E:----------3-------------------------|

…down


e:---------------------------------------------|
B:-----------------3--------------3------------|
G:-------0-------0--------------0-------0------|
D:---0h2-------0--------------2-----0h2--------|
A:--------------------0-2-2h3------------------|
E:----------3----------------------------------|

Except you my love..
[D/F#] [D/F#]


e:--------------------------------------------------------|(x2)
B:--------------------------3---------------3-------------|
G:--------0-------2------0----------------0-----0-----0---|
D:------0-------0------0----------------2-----2-----2-----|
A:------------------------------0--2-h3-----------3-------|
E:---0-------2-------3------------------------------------|

[D/F#] [D/F#]


e:-------------------------------------------------------------|
B:--------------------------3---------------3------------------|
G:--------0-------2------0----------------0----0---------------|
D:------0-------0------0----------------2---------2------------|
A:------------------------------0--2-h3--------------3--2---0--|
E:---0-------2-------3-----------------------------------------|

After this Damiens part kicks in and just follow v.2..

To play the most songs, including I Remember by Damien Rice by ukulele, the most important basic ukulele chords to learn are C chord, D chord, G chord, and Em chord.
These set you up to play a ton of songs, and each of them is easy to master.

If you are searching for Cheers Darlin’ ukulele chords, you’ve visit to the best place.
You can play versatile instrument Cheers Darlin’ using ukulele or guitar.
This song by Damien Rice can also be played by that instruments.
=

Cheers Darlin’ chords has rhythm and included in O (2002) album.
You can also find another musical style, including jazz ukulele chords, country music ukulele chords, pop ukulele chords, world music ukulele chords, and rock ukulele chords here.

Cheers Darlin’ by Damien Rice Ukulele Chords

Damien Rice – Cheers Darlin’

Intro:


-------

Am Dm G C C/B (x2) (Pluck gently)

The following riff/chords are played throughout the song
The riff is played heavier and varies in some places…

[C/B]


e|-------------------------------------------------------------------|
B|-------------------------------------------------------------------|
G|---5--7--7/9~~--10--12--12/14~~--4--5--5/7~~-9--10--10/12--10--9~~-|
D|-------------------------------------------------------------------|
A|-------------------------------------------------------------------|
E|-------------------------------------------------------------------|

[C/B]


e|------------------------------------------------------------|
B|------------------------------------------------------------|
G|---5--7--7/9~~--10--12--12/14~~--4--5--5/7~~---5--4---------|
D|------------------------------------------------------6-----|
A|------------------------------------------------------------|
E|------------------------------------------------------------|

Cheers darlin' Here’s to you and your lover boy[C/B]
Cheers darlin' I got years to wait around for y[C/B]ou
Cheers darlin' I’ve got your wedding bells in my [C/B]ear
Cheers darlin' You give me three cigarettes to smoke my t[C/B]ears away

And I die when you mention his name
And I lied, I should have kissed you when we were running the reins

What am I darlin’?
A whisper in your ear? A piece of your cake?
What am I, darlin?
The boy you can fear? Or your biggest mistake?

Cheers darlin’ here’s to you and your lover man
Cheers darlin’ I just hang around and eat from a can
Cheers darlin’ I got a ribbon of green on my guitar
Cheers darlin’ I got a beauty queen to sit not very far from here

A 3rd gtr comes in here (~~~ all notes)


e|------------------------------------------------------------------|
B|------------------------------------------------------------------|
G|--7--9---9--10---9--10--9--7---7--9---9--10---9--10---12--14--16--|
D|------------------------------------------------------------------|
A|------------------------------------------------------------------|
E|------------------------------------------------------------------|

I die when he comes ’round To take you home
I’m too shy, I should have kissed you when we were alone

What am I darlin’?
A whisper in your ear? A piece of your cake?
What am I, darlin?
The boy you can fear? Or your biggest mistake?

Oh what am I?
What am I darlin’?
I got years to wait…

(Elec gtr. outro…)

End

e -[C/B]0-
G [-1-]-0-
D -0-
E [-2-]-0-

To play the this songs, including Cheers Darlin’ by Damien Rice by ukulele, the most important basic ukulele chords to learn are C chord, D chord, G chord, and Em chord.
These set you up to play a many of songs, and each of them is easy to master.

If you are looking for Elephant ukulele chords, you have visit to the right site.
You can play versatile instrument Elephant using ukulele or guitar.
This song by Damien Rice can also be played by that instruments.
=

Elephant chords has rhythm and included in 9 (2006) album.
You can also get another musical genres, including jazz ukulele chords, country music ukulele chords, pop ukulele chords, world music ukulele chords, and rock ukulele chords here.

Elephant by Damien Rice Ukulele Chords

||
|Damien Rice|
|Elephant|
|9|
||

No capo
Standard tuning

Chords:

E 022100




B 799877


This has got to die, this has got to stop
This has got to lie down, with someone else on top
You can keep me pinned, it’s easier to tease
But you can’t paint an elephant quite as good as she


And she may cry_____ like a baby. And she may dri____ve me cra____zy
Cause I____ am lately? Lo____nely


So why’d you have to lie? I take it I’m your crotch
The pillow in your pillow case is easier to touch
And then you think you’ve sinned, as you fall upon your knees
Living in your picture, still forget the breeze


And she may rise if I sing you down
And she may wisely cling to the ground
Cause I_____ am lately ho_____rny
So why___ would she take me ho____rny?

[Middle 8]
What’s the point of this song? Or even singing?
You’ve already gone, why am I clinging?
Well I could throw it out, and I could live without
And I could do it all for you I could be strong
Tell [/]me [/]if [/]you [/]want [/]me to lie

‘Cause this has got to die, this has got to stop
This has got to lie down, down with someone else on top
You can both keep me pinned, ’cause it’s easier to tease
But you can’t make me happy quite as good as me

Well you know that’s a lie

To play the this songs, including Elephant by Damien Rice by ukulele, the most crucial basic ukulele chords to learn are C chord, D chord, G chord, and Em chord.
These set you up to play a a lot of songs, and each of them is easy to learn.

If you are looking for I Don’t Want to Change You ukulele chords, you’ve visit to the best place.
You can play versatile instrument I Don’t Want to Change You using ukulele or guitar.
This song by Damien Rice can also be played by that instruments.
=

I Don’t Want to Change You chords has rhythm and included in My Favourite Faded Fantasy (2014) album.
You can also find other musical style, including jazz ukulele chords, country music ukulele chords, pop ukulele chords, world music ukulele chords, and rock ukulele chords here.

I Don’t Want to Change You by Damien Rice Ukulele Chords

Intro


e|---------------------------7---------------0-------------------------------|
B|-----8p7-------------------8---------------0-------------------------------|
G|----------9p7-----7h9------9------9-----7--7-------------------------------|
D|---------------------------9---------------9-------------------------------|
A|---------------------------7-----7---------9-------------------------------|
E|----------------------0-----------------7--7-------------------------------| x 2

T


e|---------------------------------------------------------------------------|
B|---------------------------------------------------------------------------|
G|-------------7-------------------------------------------------------------|
D|---9---7h9-------9--7------------------------------------------------------|
A|------------------------10-------------------------------------------------|
E|-------------------------------0-------------------------------------------|

Verse


e|-----7--------0------0------0----------------------------------------------|
B|-----8--------0------8------8----------------------------------------------|
G|-----9--------7------9------9----------------------------------------------|
D|-----9--------9------10-----10---------------------------------------------|
A|-----7--------9------10-----x----------------------------------------------|
E|-----0--------7------8------10---------------------------------------------|

T T

Wherever you are
Well, know that I adore you
No matter how far
Well, I can go before you
And if ever you need someone
Well, not that you need helping
But if ever you want someone
I know that I am willing

Chorus


e|------0-------0-------0--------0-------------------------------------------|
B|------8-------3-------3--------0-------------------------------------------|
G|------9-------4-------0--------0-------------------------------------------|
D|------10------5-------4--------5-------------------------------------------|
A|------10------5-------5--------7-------------------------------------------|
E|------8-------3-------5--------7-------------------------------------------|

T T

Oh, and I don’t want to change you
I don’t want to change you,
I don’t want to change your mind


e|------0-------0-------0---------0------------------------------------------|
B|------8-------3-------3---------1------------------------------------------|
G|------9-------4-------0---------0------------------------------------------|
D|------10------5-------4---------2------------------------------------------|
A|------10------5-------5---------3------------------------------------------|
E|------8-------3-------5---------3------------------------------------------|

T T
I just came across a manger
Out among the danger
Somewhere in a stranger’s eye

~~Verse
~~chours, end with the Am

Bridge

[D/F#]


e|----------0---------0--------------------------------------------------------|
B|----------1---------3--------------------------------------------------------|
G|----------2---------2--------------------------------------------------------|
D|----------2---------0--------------------------------------------------------|
A|----------0---------0--------------------------------------------------------|
E|----------x---------2--------------------------------------------------------|x2

T

I’ve never been with [D/F#]anyone
In the way I’ve been with you
But if love is not for [D/F#]fun,
Then it’s doomed, ’cause

[D/F#]


e|---------x----------x------------x--------------x-----------------------------|
B|---------3----------3------------3--------------3-----------------------------|
G|---------0----------2------------0--------------0-----------------------------|
D|---------0----------0------------2--------------2-----------------------------|
A|---------2----------0------------2--------------3-----------------------------|
E|---------3----------2------------0--------------0-----------------------------|x2

T
Water races,
[D/F#]Water races down the waterfall,
The water races,
[D/F#]Water races down the waterfall

To play the most songs, including I Don’t Want to Change You by Damien Rice by ukulele, the most important basic ukulele chords to learn are C chord, D chord, G chord, and Em chord.
These set you up to play a many of songs, and each of them is easy to master.