If you are looking for Taste the Red Hands ukulele chords, you’ve visit to the right place.
You can play versatile instrument Taste the Red Hands using ukulele or guitar.
This song by Dead Poetic can also be played by that instruments.
=

Taste the Red Hands chords has rhythm and included in New Medicines (2004) album.
You can also get another musical style, including jazz ukulele chords, country music ukulele chords, pop ukulele chords, world music ukulele chords, and rock ukulele chords here.

Taste the Red Hands by Dead Poetic Ukulele Chords


New Medicines
Tooth and Nail/Solid State Records

bBend
P.M…Palm Mute

Intro (G1)

e[—————–]
B[—————–]
G[-2-2-2-2-2-2-2-2-]
D[-0-0-3-3-3-3-3-3-]
A[—————–]X7
D[—————–]

Intro (G2) comes in on 5th time above

e[————————-]
B[————————-]
G[-33-33-33-33-33-33-33-33-]
D[-55-55-55-55-55-55-55-55-]
A[————————-]X3
D[————————-]

Then (Both)

e[———]
B[———]
G[———]

D[-3-3-3-3-]
A[-3-3-3-3-]
D[-3-3-3-3-]

Verse 1 (Both)

e[———————————————————-]
B[———————————————————-]
G[———————————————————-]
D[-0-0-3-3-3-3-3-3-0-0-3-3-3-3-3-3-0-0-3-3-3-3-3-3–3-3-3-3-]
A[-0-0-3-3-3-3-3-3-0-0-3-3-3-3-3-3-0-0-3-3-3-3-3-3–3-3-3-3-]
D[-0-0-3-3-3-3-3-3-0-0-3-3-3-3-3-3-0-0-3-3-3-3-3-3–3-3-3-3-]
e[—————–]
B[—————–]
G[———7-7-7-7-]
D[-2-2-2-2-7-7-7-7-]
A[-3-3-3-3-5-5-5-5-]
D[-2-2-2-2-5-5-5-5-]
e[———————————————————-]
B[———————————————————-]
G[———————————————————-]
D[-0-0-3-3-3-3-3-3-0-0-3-3-3-3-3-3-0-0-3-3-3-3-3-3–3-3-3-3-]
A[-0-0-3-3-3-3-3-3-0-0-3-3-3-3-3-3-0-0-3-3-3-3-3-3–3-3-3-3-]
D[-0-0-3-3-3-3-3-3-0-0-3-3-3-3-3-3-0-0-3-3-3-3-3-3–3-3-3-3-]
e[—————–]
B[—————–]
G[———7-7-7-7-]
D[-2-2-2-2-7-7-7-7-]
A[-3-3-3-3-5-5-5-5-]
D[-2-2-2-2-5-5-5-5-]

Pre-Chorus 1 (Both)

e[———————————–]
B[———————————–]
G[————————-7-7-10-10-]
D[-0-0-xxx-0-0-xxx-0-0-xxx-7-7-10-10-]
A[-0-0-xxx-0-0-xxx-0-0-xxx-5-5–8–8-]
D[-0-0-xxx-0-0-xxx-0-0-xxx-5-5–8–8-]
e[———————————————]
B[———————————————]
G[————————-7-7-7-7-10-10-10-10-]
D[-0-0-xxx-0-0-xxx-0-0-xxx-7-7-7-7-10-10-10-10-]
A[-0-0-xxx-0-0-xxx-0-0-xxx-5-5-5-5–8–8–8–8-]
D[-0-0-xxx-0-0-xxx-0-0-xxx-5-5-5-5–8–8–8–8-]

Chorus (Both)

e[———————–]
B[———————–]
G[—–10-10–7–7-10-10-]
D[-0-0-10-10–7–7-10-10-]
A[-0-0–8–8–5–5–8–8-]x4
D[-0-0–8–8–5–5–8–8-]

Post-Chorus (G1)

e[————————————————–]
B[————————————————–]
G[-2-2-2-2-2-2-2-2-2-2-2-2-2-2-2-2-2-2-2-2-2-2-2-2–]
D[-0-0-3-3-3-3-3-3-0-0-3-3-3-3-3-3-0-0-3-3-3-3-3-3–]
A[————————————————–]
D[————————————————–]

Post Chorus (G2)

e[————————————————–]
B[————————————————–]
G[-3-3-3-3-3-3-3-3-3-3-3-3-3-3-3-3-3-3-3-3-3-3-3-3–]
D[-5-5-5-5-5-5-5-5-5-5-5-5-5-5-5-5-5-5-5-5-5-5-5-5–]
A[————————————————–]
D[————————————————–]

Then (Both)

e[———]
B[———]
G[———]

D[-3-3-3-3-]
A[-3-3-3-3-]
D[-3-3-3-3-]

Verse 2
(Same as Verse 1)

Pre-Chorus 2

(———–G1————-)(–Both–)
e[————————————–]
B[————————————–]
G[—11-11b—11-11b—11-11b-10-10-7-7-]
D[-0–x–x–0–x–x–0–x–x–10-10-7-7-]
A[-0–9–9b-0–9–9b-0–9–9b–8–8-5-5-]
D[-0——–0——–0———8–8-5-5-]
(———–G1————-)(——-Both———)
e[————————————————–]
B[————————————————–]
G[—11-11b—11-11b—11-11b-10-10-7-7-10-10-10-10-]
D[-0–x–x–0–x–x–0–x–x–10-10-7-7-10-10-10-10-]
A[-0–9–9b-0–9–9b-0–9–9b–8–8-5-5–8–8–8–8-]
D[-0——–0——–0———8–8-5-5–8–8–8–8-]

Chorus

Bridge (G1)

e[————————]
B[————————]
G[———10———-10-]
D[-0/0/0/0-10–0/0-0/0-10-]
A[-0/0/0/0–8–0/0-0/0–8-]x4
D[-0/0/0/0–8–0/0-0/0–8-]

P.M…….. ………

(G2 Comes in with this on the 3rd time)
B[-6/5-8/5-6/5-]x4

Chorus

Ending (Both)

e[—————————]
B[—————————]
G[—————————]

D[-xxxxxxxxxxxxxxxxxxxxxxxxx-]
A[-xxxxxxxxxxxxxxxxxxxxxxxxx-]
D[-xxxxxxxxxxxxxxxxxxxxxxxxx-]

Then (Both play the open power chords, G1 plays the mutes)

e[—————————]
B[—————————]
G[—————————]
D[-0-0-xxx-0-0-xxx-0-0-xxx-0-]
A[-0-0-xxx-0-0-xxx-0-0-xxx-0-]
D[-0-0-xxx-0-0-xxx-0-0-xxx-0-]

To play the most songs, including Taste the Red Hands by Dead Poetic by ukulele, the most crucial basic ukulele chords to learn are C chord, D chord, G chord, and Em chord.
These set you up to play a a lot of songs, and each of them is easy to learn.

If you are looking for Narcotic ukulele chords, you already come to the right place.
You can play versatile instrument Narcotic using ukulele or guitar.
This song by Dead Poetic can also be played by that instruments.
=

Narcotic chords has rhythm and included in Vices (2006) album.
You can also get another musical style, including jazz ukulele chords, country music ukulele chords, pop ukulele chords, world music ukulele chords, and rock ukulele chords here.

Narcotic by Dead Poetic Ukulele Chords

Intro


E[------------------------------------]
B[------------------------------------]
G[------------------------------------]
D[------------------------------------]
A[------------------------------------]x3

D[-2/2/2/5/5/5/2/2/2/5/5/5/8/8/7/7—-]


E[-----------------------------------]
B[-----------------------------------]
G[-----------------------------------]
D[-----------------------------sA[-----------------------------sD[-2/2/2/5/5/5/2/2/2/2/2/2/2/2-s

Verse 1


E[---------------------------------------]
B[---------------------------------------]
G[-----5-----5-----------5-----5-5-------]
D[-0-2-5-0-2-5-7--5--0-2-5-0-2-5-5--5----]
A[-0-2---0-2---7--5--0-2---0-2---3--5----]x2
D[-0-2---0-2---7--5--0-2---0-2------5----]

Pre-Chorus


E[------------------------------------------------------------------]
B[------------------------------------------------------------------]
G[------------------------------------------------------------------]
D[------------------------------------------------------------------]
A[------------------------------------------------------------------]
D[-8/8/8/7/7/7/8/8/8/7/7/7/5/5/5/5-8/8/8/7/7/7/10/10/10/10/10/10----]

Chorus


E[-----------------------]
B[-----------------------]
G[------------7---9-6----]
D[-2---4-5----x---x-x----]
A[-2---4-5----5---7-4----]x2
D[-2---4-5---------------]

Post-Chorus


E[------------------------------------]
B[------------------------------------]
G[------------------------------------]
D[------------------------------------]
A[------------------------------------]

D[-2/2/2/5/5/5/2/2/2/5/5/5/8/8/7/7—-]


E[-----------------------------------]
B[-----------------------------------]
G[-----------------------------------]
D[-----------------------------sA[-----------------------------sD[-2/2/2/5/5/5/2/2/2/2/2/2/2/2-s

Verse 2
(Same as Verse 1)

Pre-Chorus

Chorus 2


E[-----------------------]
B[-----------------------]
G[------------7---9-6----]
D[-2---4-5----x---x-x----]
A[-2---4-5----5---7-4----]x4
D[-2---4-5---------------]

Bridge


E[--------------------------------------------------------------------------]
B[--------------------------------------------------------------------------]
G[--------------------------------------------------------------------------]
D[--------------------------------------------------------------------------]
A[--------------------------------------------------------------------------]

D[-0/0/0/5/5/5/2/2/2/0/0/0/5/5/5/2/2/2/0/0/0/5/5/5/2/2/2/0/0/0/5/5/5/2/2/2–]


E[--------------------------------------------------------------------------]
B[--------------------------------------------------------------------------]
G[--------------------------------------------------------------------------]
D[--------------------------------------------------------------------------]
A[--------------------------------------------------------------------------]

D[-8/8/8/7/7/7/5/5/5/8/8/8/7/7/7/5/5/5/8/8/8/7/7/7/5/5/5/8/8/8/7/7/7/5/5/5–]


E[--------------------------------------------------------------------------]
B[--------------------------------------------------------------------------]
G[--------------------------------------------------------------------------]
D[--------------------------------------------------------------------------]
A[--------------------------------------------------------------------------]

D[-0/0/0/5/5/5/2/2/2/0/0/0/5/5/5/2/2/2/0/0/0/5/5/5/2/2/2/0/0/0/5/5/5/2/2/2–]


E[--------------------------------------------------------------------------]
B[--------------------------------------------------------------------------]
G[--------------------------------------------------------------------------]
D[--------------------------------------------------------------------------]
A[--------------------------------------------------------------------------]

D[-8/8/8/7/7/7/5/5/5/8/8/8/7/7/7/5/5/5/8/8/8/7/7/7/5/5/5/8/8/8/7/7/7/5/5/5–]

Chorus 3


E[-----------------------]
B[-----------------------]
G[------------7---9-6----]
D[-2---4-5----x---x-x----]
A[-2---4-5----5---7-4----]
D[-2---4-5---------------]
E[----------------------------]
B[----------------------------]
G[-----------------7---9-6----]
D[-2/2xx2/2-4-5----x---x-x----]
A[-2/2xx2/2-4-5----5---7-4----]
D[-2/2xx2/2-4-5---------------]
E[-----------------------]
B[-----------------------]
G[------------7---9-6----]
D[-2---4-5----x---x-x----]
A[-2---4-5----5---7-4----]x2
D[-2---4-5---------------]

Ending


E[------------------------------------]
B[------------------------------------]
G[------------------------------------]
D[------------------------------------]
A[------------------------------------]x4

D[-2/2/2/5/5/5/2/2/2/5/5/5/8/8/7/7—-]

To play the most songs, including Narcotic by Dead Poetic by ukulele, the most crucial basic ukulele chords to learn are C chord, D chord, G chord, and Em chord.
These set you up to play a a lot of songs, and each of them is easy to master.

If you are looking for Long Forgotten ukulele chords, you have visit to the right site.
You can play versatile instrument Long Forgotten using ukulele or guitar.
This song by Dead Poetic can also be played by that instruments.
=

Long Forgotten chords has rhythm and included in Vices (2006) album.
You can also find other musical style, including jazz ukulele chords, country music ukulele chords, pop ukulele chords, world music ukulele chords, and rock ukulele chords here.

Long Forgotten by Dead Poetic Ukulele Chords


Drop C# drop D with all strings tuned down half a step.

Intro just power chords


eb ---------------------------------------------------------------------
Bb ---------------------------------------------------------------------
Gb ---------------------------------------------------------------------
Db -2-4-xxxxxxxxxxxx-2-4-xxxxxxxxxxxx-2-4-xxxxxxxxxxxx-2-4-xxxxxxxxxxxx-
Ab -2-4-xxxxxxxxxxxx-2-4-xxxxxxxxxxxx-2-4-xxxxxxxxxxxx-2-4-xxxxxxxxxxxx-
Db -2-4-xxxxxxxxxxxx-2-4-xxxxxxxxxxxx-2-4-xxxxxxxxxxxx-2-4-xxxxxxxxxxxx-

Intro part 2, power chords with a riff


eb -----------------------------------------------------------------------
Bb -----------------------------------------------------------------------
Gb -----------------------------------------------------------------------
Db -2-4-----------------------2-4----------------------4-7-447744---------
Ab -2-4-447744----------------2-4-447744---------------4-7-------7774~5~4-
Db -2-4-------777-5~6~5-2-4---2-4-------777-5~6~5-2-4--4-7----------------
eb ------------------------
Bb ------------------------
Gb ------------------------
Db -2-4--------------------
Ab -2-4-447744-------------
Db -2-4-------777-5~6~5-2-4

Verse


eb ------------------
Bb ------------------
Gb ------------------
Db -2-4-------------- x4
Ab -2-4--------------
Db -2-4--------------

then with the riff again:


eb ----------------------------------------------------------------------- )
Bb ----------------------------------------------------------------------- )
Gb ----------------------------------------------------------------------- )
Db -2-4-----------------------2-4----------------------4-7-447744--------- )
Ab -2-4-447744----------------2-4-447744---------------4-7-------7774~5~4- )
Db -2-4-------777-5~6~5-2-4---2-4-------777-5~6~5-2-4--4-7---------------- )

)x2


eb ------------------------- )
Bb ------------------------- )
Gb ------------------------- )
Db -2-4--------------------- )
Ab -2-4-447744-------------- )
Db -2-4-------777-5~6~5-2-4- )

prechorus


eb -----------------------------
Bb -----------------------------
Gb -----------------------------
Db -0-------------2-------------
Ab -0-------------2-------------
Db -0-------------2-------------

chorus (t is 10)


eb --------------------------------------------------------------------------
Bb ----------------------------------------------------------------------14~-
Gb --------------------------------------------------------------------------
Db -4444444444444474-4444444444444444-7777777777777797-tttttttttttttttt------
Ab -4444444444444444-2222222222222222-7777777777777777-6666666666666666------
Db -4444444444444444-2222222222222222-7777777777777777-6666666666666666------
eb -------------------------
Bb -------------------------
Gb -------------------------
Db -2-4---------------------
Ab -2-4-447744--------------
Db -2-4-------777-5~6~5-2-4-

Verse
PreChours
Chorus

Bridge


eb ---------------
Bb ---------------
Gb ---------------
Db --------------- repeat
Ab ---------------

Db -4~-4~-4~-4472-

prechorus

chorus (t is 10)


eb --------------------------------------------------------------------------
Bb ----------------------------------------------------------------------14~-
Gb --------------------------------------------------------------------------
Db -4444444444444474-4444444444444444-7777777777777797-tttttttttttttttt------
Ab ------------------2222222222222222-7777777777777777-6666666666666666------
Db ------------------2222222222222222-7777777777777777-6666666666666666------


eb —
[—]
[—]
Ab [-4-]-4-slide down
[-4-]

To play the most songs, including Long Forgotten by Dead Poetic by ukulele, the most crucial basic ukulele chords to learn are C chord, D chord, G chord, and Em chord.
These set you up to play a many of songs, and each of them is easy to learn.