If you are looking for Brothers on a Hotel Bed ukulele chords, you already come to the best place.
You can play versatile instrument Brothers on a Hotel Bed using ukulele or guitar.
This song by Death Cab for Cutie can also be played by that instruments.
=

Brothers on a Hotel Bed chords has rhythm and included in Other Songs album.
You can also find another musical style, including jazz ukulele chords, country music ukulele chords, pop ukulele chords, world music ukulele chords, and rock ukulele chords here.

Brothers on a Hotel Bed by Death Cab for Cutie Ukulele Chords

Capo 3

-1- -0- -0- -2-
-1- -1- -1- -0-
-2- -2- -0- -0-
-3- -2- -2- -0-
-x- -0- -3- -2-
-x- -x- -x- -3-

Opening Guitar Chords Fmaj-Am-C-G

Verse 1

You may tire of me
As our December sun is setting
Because I’m not who I used to be
No longer easy on the eyes
But these wrinkles masterfully disguise
The youthful boy below

Verse 2

Who turned your way and saw
Something he was not looking for
Both a beginning and an end
But now he lives inside
Someone he does not recognize
When he catches his reflection on accident

Interlude Fmaj-Am-C-Fmaj

Verse 3

On the back of a motorbike
With your arms outstretched, trying to take flight
Leaving everything behind
But even at our swiftest speed
We couldn’t break from the concrete
And the city where we still reside

Verse 4

And I have learned
That even landlocked lovers yearn
For the sea like navy men
Because now we say goodnight
From our own seperate sides
Like brothers on a hotel bed[C-Fmaj]
Like brothers on a hotel [C-Fmaj]bed
Like brothers on a hotel [C-Fmaj]bed
Like brothers on a hotel [C-G]bed

Interlude Fmaj-Am-C-Fmaj

You may tire of me
As our December sun is setting
Because I’m not who I used to be

To play the most songs, including Brothers on a Hotel Bed by Death Cab for Cutie by ukulele, the most crucial basic ukulele chords to learn are C chord, D chord, G chord, and Em chord.
These set you up to play a ton of songs, and each of them is easy to learn.

If you are searching for A Lack of Color ukulele chords, you already come to the best site.
You can play versatile instrument A Lack of Color using ukulele or guitar.
This song by Death Cab for Cutie can also be played by that instruments.
=

A Lack of Color chords has rhythm and included in Transatlanticism (2003) album.
You can also get other musical genres, including jazz ukulele chords, country music ukulele chords, pop ukulele chords, world music ukulele chords, and rock ukulele chords here.

A Lack of Color by Death Cab for Cutie Ukulele Chords


Band: Death Cab For Cutie
Song: Lack Of Color
Album: Transatlanticism (2003)
Tablature by: el_STORM
Comment: Great Band, great Album, great Song. I know this tab isn’t 100% correct but
I think it sounds very well, singing along the lyrics fits just perfect. 😉


Intro/Verse:

Eb G Eb eb Eb G Eb F


e |----------------------------------------------|
b |----------------------------------------------|
G |----------------------------------------------|
D |--5-5-5-5-5-5--/1-1----/5-5-5-5-5-5--/3-3-----|
A |----------------------------------------------|
Eb|-0-0-0-0-0-0---0--0----0-0-0-0-0-0---0-0------|


e |----------------------------------------------|
b |--4-4-4-4-4-4---3-3-------------4-4---3-3-----|
G |----------------------------------------------|
D |----------------------6-6-6-6-----------------|
A |-3-3-3-3-3-3---3-3---3-3-3-3---3-3---3-3------|
Eb|----------------------------------------------|

and when I see you
I really see you upside down
but my brain knows better
it picks you up and turns you around
turns you around
turns you around

if you feel discouraged
and there’s a lack of color here
please don’t worry lover
it’s really bursting at the seams
from absorbing everything
the spectrum’s a to z

this is fact not fiction
for the first time in years
and all the girls in every girlie magazine
can’t make me feel any less alone
I’m reaching for the (phone)

now, they start to play chords, starting on “…phone”:

Bb H07 Cm Bb


e |---------(3)----------------------------------|
b |-3-3--3---4--3--------------------------------|
G |-3-3--1---5--3--------------------------------|
D |-3-3--3---5--3--------------------------------|
A |-1-1--2---3--1--------------------------------|
E#|----------------------------------------------|

(I’m reaching for the) phone
to call at 7:03
and on your machine I slur a plea
for you to come home
but I know it’s to late
and I should have given you a reason to stay
given you a reason to stay (x3)

then play the intro again and add the verse one more time:

this is fact not fiction
for the first time in years

To play the this songs, including A Lack of Color by Death Cab for Cutie by ukulele, the most crucial basic ukulele chords to learn are C chord, D chord, G chord, and Em chord.
These set you up to play a many of songs, and each of them is easy to master.

If you are looking for The Employment Pages ukulele chords, you already come to the best place.
You can play versatile instrument The Employment Pages using ukulele or guitar.
This song by Death Cab for Cutie can also be played by that instruments.
=

The Employment Pages chords has rhythm and included in We Have the Facts and We’re Voting Yes (2000) album.
You can also find another musical genres, including jazz ukulele chords, country music ukulele chords, pop ukulele chords, world music ukulele chords, and rock ukulele chords here.

The Employment Pages by Death Cab for Cutie Ukulele Chords

tab for ‘The Employment Pages’ by ‘Death Cab For Cutie’

verse


e ---0---0---0---0----------------
b -3---3---2---2-----2---2---2---2
g -----------------2---2---0---0--


e

the last time before the chorus it changes to


e ---0---0---0---0----------------
b -3---3---2---2-------------2---2
g -------------------2------------
d -----------------0---0-4-----4--

e [-]-

chorus:

4X


e ---0----------------------------
b -----2-5/7---2-------------2---2
g -2-----------------2------------
d -----------------0---0-4-----4--

e [-]-

2X


e -------0-------------0----------
b ---------------------5/7--------
g ---------------------------6----
d ---4/6-2---------4/6------------
a -0-------------0----------------

e –

“And it was true that I was truly failing.”


-------------
-------------
-------------
---4-4-6-7---
---0-0-0-0---
----------------------
-------------7/2------
----------------------
---4-6-7--------------
---0-0-0--------------
--------------------------------------------------
--------2---2---2----2-------2----2----2---2-----
-----4----4---4---4-------4----4----4----4-------
----------------------------0---------------------
--------------------------------------------------
-----0--------------------------------------------

During the “calling around, but nothing was found” part, Ben simply plays a
D# repeatedly, then a D repeatedly (the keyboard sounds fill the rest of the
chord).

lyrics:

we spread out and occupy the cracks in the urban streets
idle now, i rearrange the furniture as you sleep
it’s so appropriate the way we amplify the sound
and then the neighbors drop by and they ask to turn it down again
we spread out and everyone is frightfully more aware
so impressed the cocktail polotics and obscure details
and it was true that i was truly failing
but you were gone and i was home
calling around but nothing was found worthwhile.

To play the most songs, including The Employment Pages by Death Cab for Cutie by ukulele, the most crucial basic ukulele chords to learn are C chord, D chord, G chord, and Em chord.
These set you up to play a ton of songs, and each of them is easy to learn.

If you are searching for What Sarah Said ukulele chords, you’ve come to the right site.
You can play versatile instrument What Sarah Said using ukulele or guitar.
This song by Death Cab for Cutie can also be played by that instruments.
=

What Sarah Said chords has rhythm and included in Other Songs album.
You can also find other musical genres, including jazz ukulele chords, country music ukulele chords, pop ukulele chords, world music ukulele chords, and rock ukulele chords here.

What Sarah Said by Death Cab for Cutie Ukulele Chords

Taken from the video from mikesmai on youtube
Thanks a lot man! Anyway if you watched it an just need to look at the tabs without
to pause and unpause the video here
are:

Piano Intro:

E:—–12——-12—-| (2x)
B:—8——–8——-|
G:10——-10———|
D:——————–|
A:——————–|
E:——————–|
E:—-10——10——| (2x)
B:–8——-8———|
G:9——-9———–|
D:——————–|
A:——————–|
E:——————–|
E:—-10——10——| (2x)
B:–8——-8———|
G:9——-9———–|
D:——————–|
A:——————–|
E:——————–|
E:—-8——8——–| (2x)
B:–8——8———-|
G:7——7————|
D:——————–|
A:——————–|
E:——————–|
E:—-8——7——–| (2x)
B:–8——8———-|
G:5——5————|
D:——————–|
A:——————–|
E:——————–|

Guitar Intro:

E:——————–| (2x)
B:—-5—–5———|
G:–0—–0———–|
D:3—–3————-|
A:——————–|
E:——————–|
E:——————–| (2x)
B:—-3—–3———|
G:–0—–0———–|
D:2—–2————-|
A:——————–|
E:——————–|
E:——————–| (2x)
B:—-1—–1———|
G:–0—–0———–|
D:0—–0————-|
A:——————–|
E:——————–|
E:——————–| (2x)
B:—-1—–1———|
G:–0—–0———–|
D:——————–|
A:3—–3————-|
E:——————–|
E:——————–| (2x)
B:—-5—–5———|
G:–0—–0———–|
D:3—–3————-|
A:——————–|
E:——————–|
E:——————–| (2x)
B:—-3—–3———|
G:–0—–0———–|
D:2—–2————-|
A:——————–|
E:——————–|
E:——————–| (2x)
B:—-1—–1———|
G:–0—–0———–|
D:0—–0————-|
A:——————–|
E:——————–|
E:——————–| (2x)
B:—-1—–0———|
G:–0—–0———–|
D:——————–|
A:3—–3————-|
E:——————–|

Verse:

E:3–3–3–3———-|
B:1–1–1–1———-|
G:2–0–0–0———-|
D:3–2–0–2———-|
A:———3———-|
E:——————–|

Bridge:

E:1–1–0–0———-|
B:2–1–1–0———-|
G:3–2–2–0———-|
D:0–3–2–2———-|
A:—3–0–2———-|
E:—1—–0———-|

End:

E:1——————-|
B:2—9-7-8-6-5——-|
G:3——————-|
D:0——————-|
A:——————–|
E:——————–|

Interlude:

E:3—3—————|
B:1—1-1-1-1-1…….|
G:2—0—————|
D:3—2—————|
A:——————–|
E:——————–|

To play the this songs, including What Sarah Said by Death Cab for Cutie by ukulele, the most important basic ukulele chords to learn are C chord, D chord, G chord, and Em chord.
These set you up to play a a lot of songs, and each of them is easy to master.

If you are searching for Stable Song ukulele chords, you have visit to the best place.
You can play versatile instrument Stable Song using ukulele or guitar.
This song by Death Cab for Cutie can also be played by that instruments.
=

Stable Song chords has rhythm and included in Other Songs album.
You can also get other musical style, including jazz ukulele chords, country music ukulele chords, pop ukulele chords, world music ukulele chords, and rock ukulele chords here.

Stable Song by Death Cab for Cutie Ukulele Chords


-------------------------------------------------------------------------------

Stable Song ? Death Cab For Cutie


-------------------------------------------------------------------------------

This is just how I play it. It?s not exact but oh well, you can make it your own. The
intro is a just a simplified version of the verse. Hopefully you find this enjoyable and
closer than the others.

Tuning:EADGBE

Verse:


e|-X-------------3---3--3---0--X-------------3---3--3---0--X-------2---3--3----|
B|-0----------0--5---5--3---0--0----------0--5---5--3---0--0-------0---0--0----|
G|-0----0--0--0--4---4--4---4--0----0--0--0--4---4--4---4--0---0---0---0--0----|
D|-0----0--0--0--5---5--5---5--0----0--0--0--5---5--5---5--0---0---2---2--2----|
A|-2----2--2--2--3---3--3---3--2----2--2--2--3---3--3---3--2---0---2---2--2----|
E|-3----3--3--3--X---X--X---X--3----3--3--3--X---X--X---X--3---2---0---0--0----|


[G/F#]
Time for the final bow,
Rows of deserted houses,
All our[G/F#] stable mates highway bound.

Give us our measly sum,
Getting the air inside my lungs is[G/F#] heavenly,
Starting out, with[G/F#] nothing but crippling doubt.
C D Em G x2

We’ll rest easy, jus-ti-fied.

Suffered a swift defeat,
I?ll endure countless repeats,
The gift of [G/F#]memory’s an awful curse,
With age it [G/F#]just gets much worse,
But I won’t mind,
I won’t mind,
I won’t mind,
I won’t mind.

Then something like the verse, and you’re done

To play the this songs, including Stable Song by Death Cab for Cutie by ukulele, the most important basic ukulele chords to learn are C chord, D chord, G chord, and Em chord.
These set you up to play a many of songs, and each of them is easy to learn.