If you are searching for Beautiful Sun ukulele chords, you have visit to the best place.
You can play versatile instrument Beautiful Sun using ukulele or guitar.
This song by Delirious? can also be played by that instruments.
=

Beautiful Sun chords has rhythm and included in Mezzamorphis (1999) album.
You can also find another musical style, including jazz ukulele chords, country music ukulele chords, pop ukulele chords, world music ukulele chords, and rock ukulele chords here.

Beautiful Sun by Delirious? Ukulele Chords


Title:Beautiful Sun
Album:Mezzamorphis
c1999 Sparrow/Furiou5? music
Transcribed by Will Brenton


E-0-2-2-1-0-0-
A-0-7-7-6-0-0-
G-0-5-5-4-0-0-
C#-0-4-6-6-0-0-
C-0-3-2-0-1-0-
B-0-2-4-4-0-0-
D-0-0-0-2-3-2-

Intro:

First Verse:


Pre chorus

E G Slide guitar riff during pre chorus


E G e--7~/4----6~/3--------
B----------------------

Verse

Pre chorus:
play during the first part of the pre chorus


D----5-7~----5-7~/9~--
A-7-------7----------

play slide riff again

Bridge




Verse
Pre chorus

There you have it another great Deliriou5? song.
If you have any questions or comments please fell free to e-mail me

To play the this songs, including Beautiful Sun by Delirious? by ukulele, the most important basic ukulele chords to learn are C chord, D chord, G chord, and Em chord.
These set you up to play a a lot of songs, and each of them is easy to master.

If you are searching for Hang on to You ukulele chords, you’ve come to the right site.
You can play versatile instrument Hang on to You using ukulele or guitar.
This song by Delirious? can also be played by that instruments.
=

Hang on to You chords has rhythm and included in GLO (2000) album.
You can also get other musical genres, including jazz ukulele chords, country music ukulele chords, pop ukulele chords, world music ukulele chords, and rock ukulele chords here.

Hang on to You by Delirious? Ukulele Chords


CD: Glo
c2000 Curious? Music
Tabbed by Steve Cruickshank
(postlambjam@hotmail.com)

I put the chords here first, but see the tablature at the bottom
for the various riffs and other parts played throughout the song.

Verse:
(D Asus C2 G) x2

Prechorus:

Chorus:
(D Am Em Gmaj7) x2

(verse)

(prechorus)

(chorus)

Bridge: (acoustic only)

(Bm A/C# D D/F# G) x3

(solo)

(chorus)

Prechorus tab: (palm-muted)

e———————————————————————–|
B———————————————————————–|
G—4-4-4-4-4-4-4-4/—7-7-7-7-7-7-7-7———————————|
D—4-4-4-4-4-4-4-4/—7-7-7-7-7-7-7-7—5-5-5-5-5-5-5-54-4-4-4/7—–|
A—2-2-2-2-2-2-2-2/—5-5-5-5-5-5-5-5—5-5-5-5-5-5-5-54-4-4-4/7—–|
E—————————————–3-3-3-3-3-3-3-32-2-2-2/5—–|

Chorus tab: (octaves and such)

e———————————————————————–|
B———————————————————————–|
G—11—11/1211–9–7–5—-11/1211–9–7–4—-11/1211–9–7–11—|
D———————————————————————–|
A—-9—-9/109—7–5–3—–9/109—7–5–2—–9/109—7–5—9—|
E———————————————————————–|


Bridge tab: (acoustic, finger-style)

e———————————————————————–|
B—3——5——7————-0——3——5——7——10——-12-|
G—–4——6——7—-7—————4——6——7——-11——-|
D————————–7—-0—————————————|
A—2——4——5——9————-2——4——5——9——–10-|
E———————————————————————–|

[A/C#] [D/F#] [A/C#][D/F#]

e———————————————————————–|
B—3——5——7————-0—————————————|
G—–4——6——7—-7———————————————-|
D————————–7—-0—————————————|
A—2——4——5——9———————————————-|
E———————————————————————–|

[A/C#] [D/F#]

e———————————————————————–|
B——–8——-8–7–5–3–3/5—————————————-|
G———————————————————————–|
D—–9—-9—–9–7–5–4–4/5—————————————-|
A———————————————————————–|
E—0——————————————————————-|

e———————————————————————–|
B———2——-3——5—5—5—5—5—5—5———————-|
G——-2—————————————————————|
D—–2——2/4—–4/5—5—5—5—5—5—5————————|
A—0——————————————————————-|
E———————————————————————–|


Solo: (rhythm guitar/bass play D A Em G x2)

e———————————————————————–|
B———————————————————-17-19-17~~~–|
G——————–11b12r11–11-12~~~———–16-18-19————–|
D—12~~~—12-12-14————————16-17———————–|
A———————————————————————–|
E———————————————————————–|

e———————————————————————–|
B———————————————————————–|
G———–14~~~~~(let ring)——————————————-|
D—16–17————————————————————–|
A———————————————————————–|
E———————————————————————–|

e—————————————————-16b17—————|
B—10-12—/15-15-15-15-15—/15-15-15-15-15————————–|
G———–/14-14-14-14-14—/14-14-14-14-14————————–|
D————————————————————x———–|
A————————————————————————|
E————————————————————————|

To play the most songs, including Hang on to You by Delirious? by ukulele, the most important basic ukulele chords to learn are C chord, D chord, G chord, and Em chord.
These set you up to play a many of songs, and each of them is easy to learn.

If you are searching for Every Little Thing ukulele chords, you’ve visit to the best site.
You can play versatile instrument Every Little Thing using ukulele or guitar.
This song by Delirious? can also be played by that instruments.
=

Every Little Thing chords has rhythm and included in World Service (2003) album.
You can also find other musical style, including jazz ukulele chords, country music ukulele chords, pop ukulele chords, world music ukulele chords, and rock ukulele chords here.

Every Little Thing by Delirious? Ukulele Chords


Song: Every Little Thing
Album: Now Is The Time – Live At Willow Creek
Written By: Martin Smith/Stuart Garrard
Tabbed By: Countstoneula

Intro
G D Em ~ C Em ~ C (~ little riff)

little riff

E—————— or other variations where the notes are
B—————–1 E F# G then an octave higher G F# C
G—————— The C is usually a chord and not a note
D———–5–4–2
A—————–3
E–0–2–3———

Verse 1 & 2 the same






Chorus


Bridge:





Solo:
I only play it on the High E and B strings

E–15———-15–17———-17–19——–19–19—-17—-15-
B——–15————–15————–17———————
E–15———-15–14———-14–12———-12———-
B——–15————–15————–12——–12–13–

I have made a chords/lyrics sheet if anyone wants it
email me at countstoneula@hotmail.com
with Delirious – Every Little Thing as the subject
and ask for it. I check my email almost everyday.
Im pretty sure everything is right, but I will update it
if I find any problems, since I just figured this song out.

God Bless…. Delirious? is Delirious!
Maximum Impact Ministries

To play the this songs, including Every Little Thing by Delirious? by ukulele, the most crucial basic ukulele chords to learn are C chord, D chord, G chord, and Em chord.
These set you up to play a many of songs, and each of them is easy to learn.

If you are looking for Take Off My Shoes ukulele chords, you’ve come to the best place.
You can play versatile instrument Take Off My Shoes using ukulele or guitar.
This song by Delirious? can also be played by that instruments.
=

Take Off My Shoes chords has rhythm and included in The Mission Bell (2005) album.
You can also get other musical style, including jazz ukulele chords, country music ukulele chords, pop ukulele chords, world music ukulele chords, and rock ukulele chords here.

Take Off My Shoes by Delirious? Ukulele Chords


Smith/Garrard/Thatcher/Smith/Jupp
Copyright 2005
Album: Mission Bell

Here are the chords to the chorus:


The song is in C major

To play the this songs, including Take Off My Shoes by Delirious? by ukulele, the most important basic ukulele chords to learn are C chord, D chord, G chord, and Em chord.
These set you up to play a many of songs, and each of them is easy to master.

If you are looking for Sanctify ukulele chords, you already visit to the right place.
You can play versatile instrument Sanctify using ukulele or guitar.
This song by Delirious? can also be played by that instruments.
=

Sanctify chords has rhythm and included in King of Fools (1997) album.
You can also find another musical genres, including jazz ukulele chords, country music ukulele chords, pop ukulele chords, world music ukulele chords, and rock ukulele chords here.

Sanctify by Delirious? Ukulele Chords


Sent: Friday, January 09, 1998 12:56 PM

Album:King of Fools

-I have a feeling that John Thatcher uses a 5-string bass on this song,
so the C chords have a low-end rumble when he plays a 1st fret B string
(at least, I can’t play it on my guitar, so it must be low.)-

Chord fades in: C

Here I am in that old place again,

Down on my face again,
Crying out, I want you to hear my plea,

Come down and rescue me.

How long will it take?
How long will I have to wait?

’Cos all I want is all you have,
Come to me, rescue me,
Fall on me with your love.
And all you want is all I have,
Come to me, rescue me,
Fall on me with your love.

Sanctify, I want to be set apart,

Right to the very heart,
Prophesy to the four winds

And breathe life to this very place.

How long will it take?
How long will I have to wait?

’Cos all I want is all you have,
Come to me, rescue me,
Fall on me with your love.
And all you want is all I have,
Come to me, rescue me,
Fall on me with your love.

La-la-la-le x3 Rpt. (WITH CHORUS RIFF)

And all I want is all you have,
Come to me, rescue me,
Fall on me, lavish me,
Run to me, walk with me,

Rescue me.

And all you want is all I have,
Come to me, rescue me,
Fall on me with your love.

Lifted up, I’ve climbed with the strength I have,

Right to this mountain top.
Looking out, the cloud’s getting bigger now,

It’s time to get ready now.

CHORUS RIFF

|—————–|—————–|—————–1–1–1–1–|
|———3—1—|———3—1—|—1—1—3–3–1–1–1–1–|
|—0—0–0—0–|—3—3–3—3–|—————–2–2–2–2–|
|–2—2—-2—2-|–3—3—-3—3-|–2—2———-3–3–3–3–|
|-3—3———–|-1—1———–|-0—0—-2–2—3–3–3–3–|
|—————–|—————–|———3–3—-1–1–1–1–|

CHORDS:
Am: X02210
C: (1)X32010 (bass’ note)
F: 133211
G: 355433
Csus2: X3203X
Bbsus2:X1331X

OK?
Mail me with comments.
Elliot

To play the most songs, including Sanctify by Delirious? by ukulele, the most crucial basic ukulele chords to learn are C chord, D chord, G chord, and Em chord.
These set you up to play a ton of songs, and each of them is easy to learn.

If you are looking for Coming Back ukulele chords, you’ve come to the right place.
You can play versatile instrument Coming Back using ukulele or guitar.
This song by Delirious? can also be played by that instruments.
=

Coming Back chords has rhythm and included in Cutting Edge 1 & 2 (1994) album.
You can also get other musical genres, including jazz ukulele chords, country music ukulele chords, pop ukulele chords, world music ukulele chords, and rock ukulele chords here.

Coming Back by Delirious? Ukulele Chords


——————————

“Coming Back” by Martin Smith
Performed by Deliriou5

——————————

Transcribed by Kevin Kroitor

Verse: x2




Chorus:
[(G]
Am G/B C2) x2

Verse

Bridge:



(Em C2) x3

Chorus (2x – FADE)

To play the this songs, including Coming Back by Delirious? by ukulele, the most crucial basic ukulele chords to learn are C chord, D chord, G chord, and Em chord.
These set you up to play a many of songs, and each of them is easy to master.

If you are searching for I Could Sing of Your Love Forever ukulele chords, you already come to the right place.
You can play versatile instrument I Could Sing of Your Love Forever using ukulele or guitar.
This song by Delirious? can also be played by that instruments.
=

I Could Sing of Your Love Forever chords has rhythm and included in Cutting Edge 1 & 2 (1994) album.
You can also get another musical style, including jazz ukulele chords, country music ukulele chords, pop ukulele chords, world music ukulele chords, and rock ukulele chords here.

I Could Sing of Your Love Forever by Delirious? Ukulele Chords


OVER THE MOUNTAINS AND THE SEAS (I COULD SING OF YOUR LOVE FOREVER)
Capo 3(D)
Music by Delirious
Lyrics by Martin Smith

Chords Used:
[F/A]


e 1----2----3----0----1----3----3----0----1----
B 1----3----3----0----2----3----6----2----1----
G 2----2----3----0----2----0----5----2----2----
D 3----0----3----2----2----0----5----2----3----
A 3----x----5----2----1----2----3----0----0----
E 1----x----3----0----x----3----x----x----x----

Verse:
[F(D)] [Gm7(Em)]


e --------------------------------------------------------------------------------------
B --------------------------------------------------------------------------------------
G 17-17-14--14-----------------------------17---17----14-14-----------------------------
D -----------------17----17------15--15---------------------------17---17-------15--15--
A --------------------------------------------------------------------------------------
E --------------------------------------------------------------------------------------

Ov-er the moun – tains and____ the sea, your riv – er runs____ with love____ for me,

[Bb(G)] [Csus4(A)]


e --------------------------------------------------------------------------------------
B --------------------------------------------------------------------------------------
G 17---17-14---14-----------------------------------------------------------------------
D -----------------17--17--15-17------------17---17---15--14-----17--17---------15-15---
A --------------------------------------------------------------------------------------
E --------------------------------------------------------------------------------------

and I will o – pen up my heart,_______ and let the Heal – er set_______ me free

[F(D)] [Gm7(Em)]


e --------------------------------------------------------------------------------------
B --------------------------------------------------------------------------------------
G 17--17----14--14-----------------------------17---17-14---14--------------------------
D ----------------------17-17-----15--15--------------------------17-17-------15-15-----
A --------------------------------------------------------------------------------------
E --------------------------------------------------------------------------------------

I’m hap – py to____ be in____ the truth. and I will dai – ly lift____ my hands

[Bb(G)] [Csus4(A)]


e --------------------------------------------------------------------------------------
B --------------------------------------------------------------------------------------
G 17---17-14-------17---17---17----17-----19----17----17----14----17-------15----------
D --------------------------------------------------------------------------------------
A --------------------------------------------------------------------------------------
E --------------------------------------------------------------------------------------

For I will___ al – ways sing of when your love came down, yeah____

Chorus:
[F(D)] [Gm7(Em)] [Bb(G)] [Csus4(A)]


e -------------------------------------------------------------17---20------------------
B ---------------------------------------------18-18---18---20-----------------18--20-20
G 15-15---15---17-14---17---------15--17-17---------------------------------------------
D --------------------------------------------------------------------------------------
A --------------------------------------------------------------------------------------
E --------------------------------------------------------------------------------------

I could sing of your love______ for-ev-er, I could sing of your love______ for-ev-er

Bridge:
[Gm7(Em)] [F/A(D)] [Bb(G)] [Csus4(A)] [Gm7(Em)]


e --------------------------------------------------------------------------------------
B 12----------------------------------15---13--13---13----------------12----------------
G ----14-12--------------------------------------------14------------------14--12-------
D -------------15---12--15-------12-------------------------------12--------------------
A --------------------------------------------------------------------------------------
E --------------------------------------------------------------------------------------

Oh, I feel__ like dan-cing, it’s fool-ish-ness I know;____ But when the world____

[F/A] [Bb(G)] [Csus4(A)] [F(D)]


e --------------------------------------------------------------------------------------
B -------------------------------15--------13---13------13---------15----13-------------
G -----------------------------------------------------------14---------------14p12-----
D 15--12---15--15------15---15------------------------------------------------------15--
A --------------------------------------------------------------------------------------
E --------------------------------------------------------------------------------------

has seen the light, they will dance____ with joy____ like we’re dan – cing now.______

To play the this songs, including I Could Sing of Your Love Forever by Delirious? by ukulele, the most important basic ukulele chords to learn are C chord, D chord, G chord, and Em chord.
These set you up to play a a lot of songs, and each of them is easy to learn.

If you are looking for Follow ukulele chords, you have come to the best place.
You can play versatile instrument Follow using ukulele or guitar.
This song by Delirious? can also be played by that instruments.
=

Follow chords has rhythm and included in Mezzamorphis (1999) album.
You can also find other musical genres, including jazz ukulele chords, country music ukulele chords, pop ukulele chords, world music ukulele chords, and rock ukulele chords here.

Follow by Delirious? Ukulele Chords


transcribed by Bill Fish (fishwa1@gcc.edu)

This transcription follow the same chord constructions as King of Fools
(the song). The chords are fairly simple. This is pretty close, but of
course Delirious? have plenty of neat effects that I don’t know how to
reproduce. I hope this helps. God bless.

Intro:

Verse:


[E/D#]

[(G#] [E)]
Chorus:
(E A A/F#) x2

Verse:


[E/D#]


[E/D#]

[(G#] [E)]
Chorus x2

Interlude
[A/F#]

(funk in Em)

(interlude with chords from chorus)

Chorus

To play the this songs, including Follow by Delirious? by ukulele, the most important basic ukulele chords to learn are C chord, D chord, G chord, and Em chord.
These set you up to play a many of songs, and each of them is easy to learn.

If you are looking for What Is This Thing Called Love? ukulele chords, you’ve come to the best place.
You can play versatile instrument What Is This Thing Called Love? using ukulele or guitar.
This song by Delirious? can also be played by that instruments.
=

What Is This Thing Called Love? chords has rhythm and included in Cutting Edge 1 & 2 (1994) album.
You can also get other musical style, including jazz ukulele chords, country music ukulele chords, pop ukulele chords, world music ukulele chords, and rock ukulele chords here.

What Is This Thing Called Love? by Delirious? Ukulele Chords


What Is This Thing Called Love by Delirious?
Written by Martin Smith (sounds like A Bee Gees song)
Transcribed by Joel elliott (J_skunk@hotmail.com)
From the Cutting Edge cd

Capo on 3rd Fret

Chords(relative to capo)

D xx0232
Em7 022033
G 320033
Asus x02230

Verse:
(D Em7 G D) x2
Prechorus:
(Em7 G D Asus) x2

Chorus
(D G Em7 D) x2

then:

(verse)
(chorus)

Thanks for your time.

To play the this songs, including What Is This Thing Called Love? by Delirious? by ukulele, the most important basic ukulele chords to learn are C chord, D chord, G chord, and Em chord.
These set you up to play a ton of songs, and each of them is easy to master.

If you are looking for All I Want Is You ukulele chords, you’ve come to the right site.
You can play versatile instrument All I Want Is You using ukulele or guitar.
This song by Delirious? can also be played by that instruments.
=

All I Want Is You chords has rhythm and included in Cutting Edge 3 & 4 (1995) album.
You can also find another musical genres, including jazz ukulele chords, country music ukulele chords, pop ukulele chords, world music ukulele chords, and rock ukulele chords here.

All I Want Is You by Delirious? Ukulele Chords

Intro/Verse
palm mute


--9-9-9-9-9-9-9-9--7-7-7-7-7-7-7-7--5-5-5-5-5-5-5-5--7-7-7-7-7-7-7-7----------
--7-7-7-7-7-7-7-7--5-5-5-5-5-5-5-5--3-3-3-3-3-3-3-3--5-5-5-5-5-5-5-5----------

Did I tell you……..

Pre Chorus ( Well maybe ill just….)

Chorus:

Verse: ( Well Ive been thinking about..)

Chorus:

Verse 3(?):


------0----0-----------0----0-----------0----0-----------0----0---------------
----0----0---0-------0----0---0-------0----0---0-------0----0---0-------------
--7----------------5----------------3----------------5------------------------

Chorus
Bridge:
[G/B] [G/B] [G/B]

Solo:


--7v--------9v--------9/7--7-------------------------------------5------------
-------------------------------10----9----9--10--9--7----7/5--5---------------
--5/4--7---------------------5--5--5----4--5--7----5/7/9----------------------
----------5-5-5----5/7----7---------------------------------------------------
--------------------------------------------------------------7v--------------
--9----7----10----9----------------------9----7----10----9--------------------
-----------------------10----10h12p10-----------------------------------------

Chords:
[G/B]


--3----3----2----3----3-----------
--3----3----3----3----3-----------
--0----0----2----0----0-----------
--0----2----0----2----0-----------
--2----3---------2----2-----------
--3--------------0----------------

Play In Christ

To play the most songs, including All I Want Is You by Delirious? by ukulele, the most important basic ukulele chords to learn are C chord, D chord, G chord, and Em chord.
These set you up to play a a lot of songs, and each of them is easy to master.