If you are looking for Honey and Vinegar ukulele chords, you already come to the right place.
You can play versatile instrument Honey and Vinegar using ukulele or guitar.
This song by Down to Earth Approach can also be played by that instruments.
=

Honey and Vinegar chords has rhythm and included in album.
You can also get other musical genres, including jazz ukulele chords, country music ukulele chords, pop ukulele chords, world music ukulele chords, and rock ukulele chords here.

Honey and Vinegar by Down to Earth Approach Ukulele Chords

Band: Down to Earth Approach
Song: Honey and Vinegar
Album: Another Intervention

Intro
Guitar 1


e|-----------------------------------------|X4
B|---------8-------3-5---------------------|
G|---5-4-5---5-4-5-------------------------|
D|-----------------------------------------|
A|-----------------------------------------|
E|-----------------------------------------|

Guitar 2 (after the first time guitar 1)


e|-------------------------------------------------------------------|
B|-------------------------------------------------------------------|
G|--5-5--5-5-5--5-5-5--5-5-5-----------------------------------------| x2
D|--5~5--5-5-5--5~5-5--5-5-5--3-3-3--3-3-3--3-3-3?-3-3-3-------------|
A|--3~3--3-3-3--3-3-3--3-3-3--3-3-3--3-3-3--3-3-3--3-3-3-------------|
E|--~-----------~-------------1-1-1--1-1-1--1-1-1--1-1-1-------------|

Verse
Guitar 1 (Comes in during middle of verse)


e|--------------------------------------------------|X2
B|-------3?----------8------------------------------|
G|------5---(x16)--5----(X16)-----------------------|
D|--------------------------------------------------|
A|--------------------------------------------------|
E|--------------------------------------------------|

Guitar 2


e|--------------------------------------------------|X4
B|--------------------------------------------------|
G|--------------------------------------------------|
D|--5--------3--------------------------------------|
A|--5-(x16)--3-(x16)--------------------------------|
E|--3--------1--------------------------------------|

Chorus:
Guitar 1


e|--------------------------------------------------|
B|--------------------------------------------------|
G|--------------------------------------------------|
D|--------------------------------------------------|
A|--------------------------------------------------|
E|--------------------------------------------------|

Guitar 2


e|--------------------------------------------------|x2
B|--------------------------------------------------|
G|-5------------------------------------------------|
D|-5-(x32)-5-------3--------------------------------|
A|-3-------5-(x16)-3-(x16)--------------------------|
E|---------3-------1--------------------------------|

Repeat Intro
Repeat Verse

Chorus:
Guitar 2 (Palm Muted)


e|--------------------------------------------------|x2
B|--------------------------------------------------|
G|-5------------------------------------------------|
D|-5-(x32)-5-------3--------------------------------|
A|-3-------5-(x16)-3-(x16)--------------------------|
E|---------3-------1--------------------------------|

Bridge
Guitar 1


e|-----------------------------------------|X4
B|---------8-------3-5---------------------|
G|---5-4-5---5-4-5-------------------------|
D|-----------------------------------------|
A|-----------------------------------------|
E|-----------------------------------------|

Guitar 2 (Like the intro but more distortion)


e|--------------------------------------------------| x2
B|--------------------------------------------------|
G|---5----------------------------------------------|
D|---5-(x16)--3-------------------------------------|
A|---3--------3-(x16)-------------------------------|
E|------------1-------------------------------------|
e|--------------------------------------------------| x1
B|--------------------------------------------------|
G|--------------------7-----------------------------|
D|---7-------3--------7-(x16)-3---------------------|
A|---7-(x16)-3-(x16)--5-------3-(X16)---------------|
E|---5-------1----------------1---------------------|

Chorus x2

End On C

The song works nicely acoustic
Here are the chords:

Intro
C F (x2)

Verse 1
If it makes you smile, then you should run away
’Cause it feels so good to pack it all and leave
If it makes you happy, then go right ahead
Put your feet on the ground and leave it all again

Chorus (x2)
And I accept your concerns
But I know that it’s not right
Let’s call it what it is

And what it is

Is dead to me

Verse 2
It will be too long until I see your face
As happy as it was before you drifted away
And lost yourself to your responsibilities
Somewhere in the middle of acceptance and rejection

Chorus (x1)

Bridge
You never go where you’ve never been
And you live your life as if everything
Is just one more thing to bear
This is a burden, but I can see if it makes you happy

Chorus x2

End on C

To play the this songs, including Honey and Vinegar by Down to Earth Approach by ukulele, the most crucial basic ukulele chords to learn are C chord, D chord, G chord, and Em chord.
These set you up to play a a lot of songs, and each of them is easy to master.