If you are looking for Bodies ukulele chords, you already visit to the right place.
You can play versatile instrument Bodies using ukulele or guitar.
This song by Drowning Pool can also be played by that instruments.
=

Bodies chords has rhythm and included in Sinner (2001) album.
You can also get other musical style, including jazz ukulele chords, country music ukulele chords, pop ukulele chords, world music ukulele chords, and rock ukulele chords here.

Bodies by Drowning Pool Ukulele Chords

Band: Drowning Pool
Song: Bodies
Album: Sinner

Intro/Chorus


|-------------------------|
|-------------------------|
|-55-5---------55-5-------|
|-------6-666--------6-666|

Verse


|----------------|
|----------------|
|----------------|
|0--0-1-0---0-1-3|

Interlude (those are indeed tens)


|------------------|
|------------------|
|-5-5-6-6-8-8-10-10|
|------------------|

Pre-Chorus (“One . . nothing wrong with me” part)


|-------------------| |----------------------------|
|-------------------| |----------------------------|
|--------5--------3-| |-------5--------------------|
|-0--0-0---0--0-0---||0--0-0---0-0--0-0--0-0--0-0-|

Bridge (“Skin on your skin, bone on bone” part)


|-------------------------| |------------------------|
|-------------------------| |------------------------|
|-------------------------| |------------------------|
|-3-6--3-3--5--0-0-000-0--||-3-6--3-3-----3333-1111-|

Song Structure
Intro
Verse
Interlude
Pre-Chorus
Chorus
Verse
Interlude
Pre-Chorus
Chorus
Bridge
Pre-Chorus
Chorus

To play the most songs, including Bodies by Drowning Pool by ukulele, the most important basic ukulele chords to learn are C chord, D chord, G chord, and Em chord.
These set you up to play a a lot of songs, and each of them is easy to master.

If you are looking for 37 Stitches ukulele chords, you have visit to the best site.
You can play versatile instrument 37 Stitches using ukulele or guitar.
This song by Drowning Pool can also be played by that instruments.
=

37 Stitches chords has rhythm and included in Full Circle (2007) album.
You can also find another musical style, including jazz ukulele chords, country music ukulele chords, pop ukulele chords, world music ukulele chords, and rock ukulele chords here.

37 Stitches by Drowning Pool Ukulele Chords

HELP MEEEE!! I have never tabbed before in my life but I am desperate to learn this
I think I have some small idea for the chorus but I’m not sure… I need help… 🙂
If someone could test what I’ve done so far and make corrections or completely finish
the song for me I would love them so much.

I know you are the only one, my little taste of heaven
And you know I am the only one, your bitter taste of hell
Your eyes scream the end is creeping in
I’ll need thirty-seven stitches, to keep the pain in
I know you are the only one, on the darkest side of the sun

Aw dude I suck, come on please help…

To play the most songs, including 37 Stitches by Drowning Pool by ukulele, the most important basic ukulele chords to learn are C chord, D chord, G chord, and Em chord.
These set you up to play a many of songs, and each of them is easy to learn.