If you are searching for Goodnight ukulele chords, you have come to the best site.
You can play versatile instrument Goodnight using ukulele or guitar.
This song by Dry Kill Logic can also be played by that instruments.
=

Goodnight chords has rhythm and included in The Darker Side of Nonsense (2001) album.
You can also find other musical genres, including jazz ukulele chords, country music ukulele chords, pop ukulele chords, world music ukulele chords, and rock ukulele chords here.

Goodnight by Dry Kill Logic Ukulele Chords


This is my first attempt at a tab so please if there are any corrections
or alternative suggestions out there feel free to e-mail me…

Tuning – EADGBE

Chords Used : Em 0220xx
C x32010
Cadd9 x32033
Em11 077777

Intro/Verse


E|-0------------------------------------------------------------------
B|---0h1p0-----0h1--1-------3p1------3-----3--1------0------0-0h1-----
G|----------0---------0---------0------0--------0------0----------0---
D|-2--------------------2---------2------2--------2------2----------2-
A|-------------3----------3-------------------------------------------
E|--------------------------------------------------------------------


E|-0------------------------3p0--------------------------------------------
B|---0h1p0-----0h1--1----------------3-----1------0------1-------3-1-0-----
G|----------0---------0---------0------0-----0------0------0-----------0---
D|-2--------------------2---------2------2-----2------2------2-----------2-
A|-------------3----------3------------------------------------------------
E|-------------------------------------------------------------------------

End of Verse
Em C (strum from here)


E|-0----------|-0-
B|---0h1p0----|-1-
G|----------0-|-0-
D|-2----------|-2-
A|------------|-3-
E|------------|---

Bridge


E|---------------------------------------------------------
B|---------------------------------------------------------
G|-------0-----0-----0-----0--------0------0-----0-----0---
D|-----9-----9-----7-----9-------10-----10-----5-----4---4-
A|---7-----7-----5-----7-----7-8------8------3-----2-------
E|-0-------------------------------------------------------

Chorus

Strum around with the Cadd9 chord


End of Song
C(Strum)


E|-0----------------0-|
B|-1----------------1-|
G|-0-----------0----0-|
D|-2---------4---4--2-|
A|-3-------5--------3-|
E|--------------------|

Lyrics and Construction

[INTRO/VERSE]
Now that I
Face the world with pain inside
Strange but I
Can’t understand the reasons why.
Forever is
A world that I cannot describe

[END OF VERSE]
That Died the time we said goodnight.


…..……….It makes no difference, wrong or……………right
The time has come to say goodnight.


And how could I
Be so sure but be so wrong?
And how could I?
Have a will so weak with a mind so strong?

[END OF VERSE]
And Only I
Can tell the difference right or wrong.


…..……….It makes no difference, wrong or……………right
I guess it’s best we say goodnight.

[END OF SONG]

To play the this songs, including Goodnight by Dry Kill Logic by ukulele, the most crucial basic ukulele chords to learn are C chord, D chord, G chord, and Em chord.
These set you up to play a ton of songs, and each of them is easy to learn.

If you are searching for Rot ukulele chords, you’ve come to the best place.
You can play versatile instrument Rot using ukulele or guitar.
This song by Dry Kill Logic can also be played by that instruments.
=

Rot chords has rhythm and included in The Darker Side of Nonsense (2001) album.
You can also find another musical style, including jazz ukulele chords, country music ukulele chords, pop ukulele chords, world music ukulele chords, and rock ukulele chords here.

Rot by Dry Kill Logic Ukulele Chords


Band: Dry Kill Logic

Tuning: Drop C

Intro:

D|———————-|
A|———————-|
F|———————-|
C|———————-|
G|———————-|
C|-0-0-0-0-1p0–0h1–1–|

pm …….

D|——————————|
A|——————————|
F|——————————|
C|-0-0-0-0–1–0–0-0-0-0–0–1-|
G|-0-0-0-0–1–0–0-0-0-0–0–1-|
C|-0-0-0-0–1–0–0-0-0-0–0–1-|

Intro2/Verse1

D|———————————-|
A|———————————-|
F|———————————-|
C|———————————-|
G|———————————-|
C|-0-0-0-0-0-0-0h1–0-0-0-0-0-0–0–|
D|———————————-|
A|———————————-|
F|———————————-|
C|-0-0-0-0-0-0-0h1–0-0-0-0-0-0–0–|
G|-0-0-0-0-0-0-0h1–0-0-0-0-0-0–0–|
C|-0-0-0-0-0-0-0h1–0-0-0-0-0-0–0–| This riff is also played

palm-muted when the song comes in:
Interlude:

D|—————————-| |—————————-|
A|—————————-| |—————————-|
F|—————————-| |—————————-|
C|—————————-| then…|—————————-|
G|——————–0h1-2-0-| |-0-0–0h1-1–0-0-0–0h1-2-0-|
C|-0-0–0h1-1–0-0-0–0h1-2-0-| |-0-0–0h1-1–0-0-0–0h1-2-0-|

Play this over the palm-muted riff with a some type of effect
and tremolo pick each note. for how long to play each note you’ll
have to listen…it’s not so hard to figure out.

D|——————|
A|——————|
F|–8/7—8/714—-|
C|——————|
G|——————|
C|——————|

Interlude 2:

D|———————————————-|
A|———————————————-|
F|———————————————-|
C|———————————————-|
G|———————————————-|
C|-0-00-2^-0-00-2^-0-2^–0-00-2^-0-00-6^-0-6^—|

Ending:

D|—————————————–|
A|—————————————–|
F|—————————————–|
C|-0-1-0-0-0-0-0-0h1–0-1-0-0-0-00-0-00-0–|
G|-0-1-0-0-0-0-0-0h1–0-1-0-0-0-00-0-00-0–|
C|-0-1-0-0-0-0-0-0h1–0-1-0-0-0-00-0-00-0–|

To play the most songs, including Rot by Dry Kill Logic by ukulele, the most important basic ukulele chords to learn are C chord, D chord, G chord, and Em chord.
These set you up to play a many of songs, and each of them is easy to learn.

If you are looking for Nightmare ukulele chords, you’ve come to the best site.
You can play versatile instrument Nightmare using ukulele or guitar.
This song by Dry Kill Logic can also be played by that instruments.
=

Nightmare chords has rhythm and included in The Darker Side of Nonsense (2001) album.
You can also get another musical style, including jazz ukulele chords, country music ukulele chords, pop ukulele chords, world music ukulele chords, and rock ukulele chords here.

Nightmare by Dry Kill Logic Ukulele Chords


Album:The darker side of nonsense
MUSIC;NIGHTMARE
ARTIST;DRY KILL LOGIC

Tuning:Drop D then tune down one whole step (C,G,C,F,A,D)
Palm Mute
/Slide
|H|Harmonic
Intro:Mild distortion


D------------------------
A------------------------
F------------------------
C------------------------
G------------------------
C-2-3-2-0-2-0-2-0-2-0-2-0

D-------------------------
A---------------------------
F----------------------------
C----------------------------
G----------------------------
C-2-3-2-0-2-0-2-0-2-0-2-0-2/3

Second intro/Chorus:(Heavy distortion)


D---------------------------
A---------------------------
F----------------------------
C-2-3-2-0-2-0-2-0-2-0-2-0-2/3
G-2-3-2-0-2-0-2-0-2-0-2-0-2/3
C-2-3-2-0-2-0-2-0-2-0-2-0-2/3

Verse:


D--------------------------
A--------------------------
F--------------------------
C-0-0-X-0--0---0-1-1-1-1-3-3-3-3
G-0-0-X-0--0---0-1-1-1-1-3-3-3-3
C-0-0-X-0--0---0-1-1-1-1-3-3-3-3

Interlude:
the first intro riff, but the other guitar in the background goes like this

|H||H|


D-------------
A-------------
F-------------
C-------------
G-------------
C-4-0-0-0-0-3-

Ending:
second intro rif
|H|
[D—–]
[A—–]
[F—–]
[C—–]
[G—–]
[C–4–]
END

To play the this songs, including Nightmare by Dry Kill Logic by ukulele, the most important basic ukulele chords to learn are C chord, D chord, G chord, and Em chord.
These set you up to play a a lot of songs, and each of them is easy to learn.

If you are looking for Neither Here nor Missed ukulele chords, you already come to the best place.
You can play versatile instrument Neither Here nor Missed using ukulele or guitar.
This song by Dry Kill Logic can also be played by that instruments.
=

Neither Here nor Missed chords has rhythm and included in The Dead and Dreaming (2004) album.
You can also get another musical genres, including jazz ukulele chords, country music ukulele chords, pop ukulele chords, world music ukulele chords, and rock ukulele chords here.

Neither Here nor Missed by Dry Kill Logic Ukulele Chords

So I basically found this tab and decided to put it here,
because I’m sure quite a few people might stumble on to this
site before any other. So the real credit for this song goes
to Dave Bordon (dbordon@optusnet.com.au), and here is a
link to his original work

http://www.ttabs.com/tabs.php?id199639

– Slide Down
/ – Slide Up
. – Palm Mute
h – hammer on
p – pull off

Bass Intro Tabbed for Guitar


D|-----------------------------------|
A|-----------------------------------|
F|-----------------------------------|
C|-----------------------------------|
G|----0-0h1p0----0-1---0-0h1p0---3-1-|
C|-0----------0------0---------0-----|

Intro (Guitar 1) (Clean) (Flanger)


D|-----------------------------------------------------------------------------|
A|-6--6--6-6--6--6--65--5--5-5--5--5--5/6--6--6-6--6--6--6/8--8--8-10--8--8----|
F|-7--7--7-7--7--7--7-7--7--7-7--7--7--7-7--7--7-7--7--7--7-7--7--7--7--7--7---|
C|-0--0--0-0--0--0--0-0--0--0-0--0--0--0-0--0--0-0--0--0--0-0--0--0--0--0--0---|
G|-----------------------------------------------------------------------------|
C|-----------------------------------------------------------------------------|
D|----------------------------------------------------------------------------|
A|-6--6--6-6--6--6--65--5--5-5--5--5--5/6--6--6-6--6--6--6/8--8--8-8--8--8----|
F|-7--7--7-7--7--7--7-7--7--7-7--7--7--7-7--7--7-7--7--7--7-7--7--7-7--7--7---|
C|-0--0--0-0--0--0--0-0--0--0-0--0--0--0-0--0--0-0--0--0--0-0--0--0-0--0--0---|
G|----------------------------------------------------------------------------|
C|----------------------------------------------------------------------------|

Intro 2 (Guitar 1) (Clean) (Flanger)


D|-----------------------------------------------------------|
A|-13-10-10-10-10-10-10-10-10-10-10-10-10-8--8--8-8--8-8-8-8-|
F|-----------------------------------------------------------|
C|-----------------------------------------------------------|
G|-----------------------------------------------------------|
C|-----------------------------------------------------------|

Guitar 2 (Distorted)


D|--------------------------------------------|
A|--------------------------------------------|
F|--------------------------------------------|
C|-1210-1010----------1010-10-1010------------|
G|-108--8-8--8-8-8-8--8-8--8--8-8--8-8-8-8----|
C|-108--8-8--8-8-8-8--8-8--8--8-8--8-8-8-8----|

. . . . . . . .

Guitar 1


D|---------------------------|
A|-5h6p5-5-5h6p5---3---3-3-3-|
F|---------------5---5-------|
C|---------------------------|
G|---------------------------|
C|---------------------------|

Guitar 2 (Distorted)


D|---------------------------------------|
A|---------------------------------------|
F|---------------------------------------|
C|---------------------------------------|
G|-0-0--0--0-0--3--0--0-0--0--0-0--3--0--|
C|-0-0--0--0-0--3--0--0-0--0--0-0--3--0--|

(Guitar 1) (Clean) (Flanger)


D|-----------------------------------------------------------------------|
A|-10-10-10-10-10-10-10-10-10-10-10-10-13-10-10-10-10-10-10-10-10-10-8-8-|
F|-----------------------------------------------------------------------|
C|-----------------------------------------------------------------------|
G|-----------------------------------------------------------------------|
C|-----------------------------------------------------------------------|

Guitar 2 (Distorted)


D|--------------------------------------------|
A|--------------------------------------------|
F|--------------------------------------------|
C|-1210-1010----------1010-10-1010------------|
G|-108--8-8--8-8-8-8--8-8--8--8-8--8-8-8-8----|
C|-108--8-8--8-8-8-8--8-8--8--8-8--8-8-8-8----|

. . . . . . . .

Guitar 1 (Clean) (Flanger)


D|---------------------------|
A|-5h6p5-5-5h6p5---3---3-3-3-|
F|---------------5---5-------|
C|---------------------------|
G|---------------------------|
C|---------------------------|

Guitar 2 (Distoreted)


D|---------------------------------------|
A|---------------------------------------|
F|---------------------------------------|
C|---------------------------------------|
G|-0-0--0--0-0--3--0--0-0--0--0-0--3--0--|
C|-0-0--0--0-0--3--0--0-0--0--0-0--3--0--|

Verse

Guitar 1 (Clean) (Flanger)


D|-------------------|R|-------------------------|
A|-6p5--5--5-5--5--5-|E|-8-8-8-8-8-8-5-5-5-5-5-5-|
F|-5-5--5--5-5--5--5-|P|-5-5-5-5-5-5-5-5-5-5-5-5-|
C|-7-7--7--7-7--7--7-|E|-7-7-7-7-7-7-7-7-7-7-7-7-|
G|-------------------|A|-------------------------|
C|-------------------|T|-------------------------|

X
Guitar 2 (Distorted)


D|--------------------|--------------------|
A|--------------------|--------------------|
F|-10-----------------|--------------------|
C|-10-----------------|--------------------|
G|-8------------------|--------------------|
C|-8------------------|--------------------|

Guitar 1 (Clean) (Flanger)


D|-------------------|R|-------------------------|
A|-6p5--5--5-5--5--5-|E|-8-8-8-8-8-8-5-5-5-5-5-5-|
F|-5-5--5--5-5--5--5-|P|-5-5-5-5-5-5-5-5-5-5-5-5-|
C|-7-7--7--7-7--7--7-|E|-7-7-7-7-7-7-7-7-7-7-7-7-|
G|-------------------|A|-------------------------|
C|-------------------|T|-------------------------|

X

Guitar 2 (Distorted)


D|--------------------|--------------------|
A|--------------------|--------------------|
F|--------------------|--------------------|
C|--------------------|--------------------|
G|--------------------|---------------3--1-|
C|--------------------|---------------3--1-|

Chorus 1

Guitar 2 (distorted)


D|---------------------------------------------------------------------------------------|
A|---------------------------------------------------------------------------------------|
F|-----------8-8-8-8-8-7-----------8-8-8-8-8-7-----------8-8-8-8-8-7---------------------|
C|-----------X-X-X-X-X-X-----------X-X-X-X-X-X-----------X-X-X-X-X-X---------------------|
G|-0-0--0--0-6-6-6-6-6-5-1-0--0--0-6-6-6-6-6-5-1-0--0--0-6-6-6-6-6-5-1-0--0--0-1-0--0--0-|
C|-0-0--0--0-------------1-0--0--0-------------1-0--0--0-------------1-0--0--0-1-0--0--0-|

Guitar 2 (distorted)


D|------------------------------------------------------------------------------------------|
A|------------------------------------------------------------------------------------------|
F|--------------8-8-8-8-8-7-----------8-8-8-8-8-7-----------8-8-8-8-8-7---------------------|
C|--------------X-X-X-X-X-X-----------X-X-X-X-X-X-----------X-X-X-X-X-X---------------------|
G|-1--0-0--0--0-6-6-6-6-6-5-1-0--0--0-6-6-6-6-6-5-1-0--0--0-6-6-6-6-6-5-1-0--0--0-1-0--0--0-|
C|-1--0-0--0--0-------------1-0--0--0-------------1-0--0--0-------------1-0--0--0-1-0--0--0-|

Verse

Guitar 1 (Clean) (Flanger)


D|-------------------|R|-------------------------|
A|-6p5--5--5-5--5--5-|E|-8-8-8-8-8-8-5-5-5-5-5-5-|
F|-5-5--5--5-5--5--5-|P|-5-5-5-5-5-5-5-5-5-5-5-5-|
C|-7-7--7--7-7--7--7-|E|-7-7-7-7-7-7-7-7-7-7-7-7-|
G|-------------------|A|-------------------------|
C|-------------------|T|-------------------------|

X
Guitar 2 (Distorted)


D|--------------------------------------------------------------------|
A|--------------------------------------------------------------------|
F|--------------------------------------------------------------------|
C|-10-10-1010-10-10-10-10-1010-10-10----------------------------------|
G|-8--8--8-8--8--8--8--8--8-8--8--8--0--0--0-0--0--0--0--0--0-0--0--0-|
C|-8--8--8-8--8--8--8--8--8-8--8--8--0--0--0-0--0--0--0--0--0-0--0--0-|

Guitar 1 (Clean) (Flanger)


D|-------------------|R|-------------------------|
A|-6p5--5--5-5--5--5-|E|-8-8-8-8-8-8-5-5-5-5-5-5-|
F|-5-5--5--5-5--5--5-|P|-5-5-5-5-5-5-5-5-5-5-5-5-|
C|-7-7--7--7-7--7--7-|E|-7-7-7-7-7-7-7-7-7-7-7-7-|
G|-------------------|A|-------------------------|
C|-------------------|T|-------------------------|

X

Guitar 2 (Distorted)


D|--------------------------------------------------------------------|
A|--------------------------------------------------------------------|
F|--------------------------------------------------------------------|
C|-10-10-1010-10-10-10-10-1010-10-10----------------------------------|
G|-8--8--8-8--8--8--8--8--8-8--8--8--0--0--0-0--0--0--0--0--0-0--0--0-|
C|-8--8--8-8--8--8--8--8--8-8--8--8--0--0--0-0--0--0--0--0--0-0--0--0-|

play this 3 1
last time 3 1

Chorus 1

Guitar 2 (distorted)


D|---------------------------------------------------------------------------------------|
A|---------------------------------------------------------------------------------------|
F|-----------8-8-8-8-8-7-----------8-8-8-8-8-7-----------8-8-8-8-8-7---------------------|
C|-----------X-X-X-X-X-X-----------X-X-X-X-X-X-----------X-X-X-X-X-X---------------------|
G|-0-0--0--0-6-6-6-6-6-5-1-0--0--0-6-6-6-6-6-5-1-0--0--0-6-6-6-6-6-5-1-0--0--0-1-0--0--0-|
C|-0-0--0--0-------------1-0--0--0-------------1-0--0--0-------------1-0--0--0-1-0--0--0-|

Guitar 2 (distorted)


D|------------------------------------------------------------------------------------------|
A|------------------------------------------------------------------------------------------|
F|--------------8-8-8-8-8-7-----------8-8-8-8-8-7-----------8-8-8-8-8-7---------------------|
C|--------------X-X-X-X-X-X-----------X-X-X-X-X-X-----------X-X-X-X-X-X---------------------|
G|-1--0-0--0--0-6-6-6-6-6-5-1-0--0--0-6-6-6-6-6-5-1-0--0--0-6-6-6-6-6-5-1-0--0--0-1-0--0--0-|
C|-1--0-0--0--0-------------1-0--0--0-------------1-0--0--0-------------1-0--0--0-1-0--0--0-|

Chorus 2

Guitar 1 (Distorted)


D|----5-----8--6--------8--6------|
A|-8-----6-------10----------10---|
F|------------------10---------10-|
C|--------------------------------|
G|--------------------------------|
C|--------------------------------|

Guitar 2 (Distorted)


D|-----------------------------------------------------------------------------------|
A|-----------------------------------------------------------------------------------|
F|-----------------------------------------------------------------------------------|
C|-7--7-7--7-7--7--7--7/10-10-1010---------------------------------------------------|
G|-5--5-5--5-5--5--5--5/8--8--8-8--1p0-1p0-1-0--0--0-0--1p0-0h1-1-0--0--0-0--1p0-0h1-|
C|-5--5-5--5-5--5--5--5/8--8--8-8--1p0-1p0-1-0--0--0-0--1p0-0h1-1-0--0--0-0--1p0-0h1-|

Bridge 1

Guitar 1 (Distorted)


D|-8--6--------8--6-----------|
A|------10----------10--------|
F|---------10---------10------|
C|----------------------------|
G|----------------------------|
C|----------------------------|

Guitar 2 (Clean) Turns Up Distortion


D|-1p0------0---1-------1-0---3-0---1-0----0-------1p0------0---1-------3-1-0-1-|
A|-----------------------------------------1-------------------------------------|
F|-----2------2-------------2-----2-----2--2-----------2------2------------------|
C|-------------------------------------------------------------------------------|
G|-------------------------------------------------------------------------------|
C|----------------0------------------------------------------------0-------------|

Guitar 3 (Clean)


D|--------------------------------------|
A|--------------------------------------|
F|--------------------------------------|
C|-3-----------------------3------------|
G|-1-----------0-----------1----------0-|
C|-------------0----------------------0-|

Bridge 2

Guitar 2 (Distortion)


D|-------------------------------------------------------------|
A|-------------------------------------------------------------|
F|-------------10-10-10-10-10-10-------------10-10-10-10-10-10-|
C|--------------X--X--X--X--X--X--------------X--X--X--X--X--X-|
G|-8-8-8-8-8-8-8--8--8--8--8--8--8-8-8-8-8-8-8--8--8--8--8--8--|
C|-8-8-8-8-8-8-------------------8-8-8-8-8-8-------------------|

. . . . . . . . . . . .


D|-------------------------------------------------------------|
A|-------------------------------------------------------------|
F|-------------14-14-14-14-14-14-------------14-14-14-14-14-14-|
C|--------------X--X--X--X--X--X--------------X--X--X--X--X--X-|
G|-0-0-0-0-0-0-12-12-12-12-12-12-0-0-0-0-0-0-12-12-12-12-12-12-|
C|-0-0-0-0-0-0-------------------0-0-0-0-0-0-------------------|

. . . . . . . . . . . .

Bridge 3

Guitar 2 (Distortion)


D|------------------------------------------------------------------------------------|
A|------------------------------------------------------------------------------------|
F|--------------8--8--8-7-----------8--8--8-7-----------8--8--8-7---------------------|
C|--------------8--8--8-7-----------8--8--8-7-----------8--8--8-7---------------------|
G|-1--0-0--0--0-6--6--6-5-1-0--0--0-6--6--6-5-1-0--0--0-6--6--6-5-1-0--0--0-1-0--0--0-|
C|-1--0-0--0--0-----------1-0--0--0-----------1-0--0--0-----------1-0--0--0-1-0--0--0-|

Chorus 2

Guitar 1 (Distorted)


D|----5-----8--6--------8--6------|
A|-8-----6-------10----------10---|
F|------------------10---------10-|
C|--------------------------------|
G|--------------------------------|
C|--------------------------------|

Guitar 2 (Distorted)


D|-----------------------------------------------------------------------------------|
A|-----------------------------------------------------------------------------------|
F|-----------------------------------------------------------------------------------|
C|-7--7-7--7-7--7--7--7/10-10-1010---------------------------------------------------|
G|-5--5-5--5-5--5--5--5/8--8--8-8--1p0-1p0-1-0--0--0-0--1p0-0h1-1-0--0--0-0--1p0-0h1-|
C|-5--5-5--5-5--5--5--5/8--8--8-8--1p0-1p0-1-0--0--0-0--1p0-0h1-1-0--0--0-0--1p0-0h1-|

Ending

Guitar 2 (Distortion)


D|-------------------------------------------------------------|
A|-------------------------------------------------------------|
F|-------------14-14-14-14-14-14-------------14-14-14-14-14-14-|
C|--------------X--X--X--X--X--X--------------X--X--X--X--X--X-|
G|-0-0-0-0-0-0-12-12-12-12-12-12-0-0-0-0-0-0-12-12-12-12-12-12-|
C|-0-0-0-0-0-0-------------------0-0-0-0-0-0-------------------|

. . . . . . . . . . . .


D|-------------------------------------------------------------|
A|-------------------------------------------------------------|
F|-------------14-14-14-14-14-14-------------14-14-14-14-15-14-|
C|--------------X--X--X--X--X--X--------------X--X--X--X--X--X-|
G|-0-0-0-0-0-0-12-12-12-12-12-12-0-0-0-0-0-0-12-12-12-12-13-12-|
C|-0-0-0-0-0-0-------------------0-0-0-0-0-0-------------------|

. . . . . . . . . . . .


D|-------------------------------------------------------------|
A|-------------------------------------------------------------|
F|-------------14-14-14-14-14-14-------------14-14-14-14-14-14-|
C|--------------X--X--X--X--X--X--------------X--X--X--X--X--X-|
G|-0-0-0-0-0-0-12-12-12-12-12-12-0-0-0-0-0-0-12-12-12-12-12-12-|
C|-0-0-0-0-0-0-------------------0-0-0-0-0-0-------------------|

. . . . . . . . . . . .


D|---------------------------------------------------------------------|
A|---------------------------------------------------------------------|
F|-------------14-14-14-14-14-14-14-14-14-15-14-14-14-14-14-15-14-14---|
C|--------------X--X--X--X--X--X--X--X--X--X_-X--X--X_-X--X--X--X--X---|
G|-0-0-0-0-0-0-12-12-12-12-12-12-12-12-12-13-12-12-12-12-12-13-12-12-0-|
C|-0-0-0-0-0-0-------------------------------------------------------0-|

. . . . . .

To play the this songs, including Neither Here nor Missed by Dry Kill Logic by ukulele, the most crucial basic ukulele chords to learn are C chord, D chord, G chord, and Em chord.
These set you up to play a many of songs, and each of them is easy to learn.

If you are searching for Neither Here nor Missed ukulele chords, you’ve visit to the right site.
You can play versatile instrument Neither Here nor Missed using ukulele or guitar.
This song by Dry Kill Logic can also be played by that instruments.
=

Neither Here nor Missed chords has rhythm and included in The Dead and Dreaming (2004) album.
You can also get another musical style, including jazz ukulele chords, country music ukulele chords, pop ukulele chords, world music ukulele chords, and rock ukulele chords here.

Neither Here nor Missed by Dry Kill Logic Ukulele Chords


So I basically found this tab and decided to put it here,
because I’m sure quite a few people might stumble on to this
site before any other. So the real credit for this song goes
to Dave Bordon (dbordon@optusnet.com.au), and here is a
link to his original work

http://www.ttabs.com/tabs.php?id199639

– Slide Down
/ – Slide Up
. – Palm Mute
h – hammer on
p – pull off

Bass Intro Tabbed for Guitar


D|-----------------------------------|
A|-----------------------------------|
F|-----------------------------------|
C|-----------------------------------|
G|----0-0h1p0----0-1---0-0h1p0---3-1-|
C|-0----------0------0---------0-----|

Intro (Guitar 1) (Clean) (Flanger)


D|-----------------------------------------------------------------------------|
A|-6--6--6-6--6--6--65--5--5-5--5--5--5/6--6--6-6--6--6--6/8--8--8-10--8--8----|
F|-7--7--7-7--7--7--7-7--7--7-7--7--7--7-7--7--7-7--7--7--7-7--7--7--7--7--7---|
C|-0--0--0-0--0--0--0-0--0--0-0--0--0--0-0--0--0-0--0--0--0-0--0--0--0--0--0---|
G|-----------------------------------------------------------------------------|
C|-----------------------------------------------------------------------------|
D|----------------------------------------------------------------------------|
A|-6--6--6-6--6--6--65--5--5-5--5--5--5/6--6--6-6--6--6--6/8--8--8-8--8--8----|
F|-7--7--7-7--7--7--7-7--7--7-7--7--7--7-7--7--7-7--7--7--7-7--7--7-7--7--7---|
C|-0--0--0-0--0--0--0-0--0--0-0--0--0--0-0--0--0-0--0--0--0-0--0--0-0--0--0---|
G|----------------------------------------------------------------------------|
C|----------------------------------------------------------------------------|

Intro 2 (Guitar 1) (Clean) (Flanger)


D|-----------------------------------------------------------|
A|-13-10-10-10-10-10-10-10-10-10-10-10-10-8--8--8-8--8-8-8-8-|
F|-----------------------------------------------------------|
C|-----------------------------------------------------------|
G|-----------------------------------------------------------|
C|-----------------------------------------------------------|

Guitar 2 (Distorted)


D|--------------------------------------------|
A|--------------------------------------------|
F|--------------------------------------------|
C|-1210-1010----------1010-10-1010------------|
G|-108--8-8--8-8-8-8--8-8--8--8-8--8-8-8-8----|
C|-108--8-8--8-8-8-8--8-8--8--8-8--8-8-8-8----|

. . . . . . . .

Guitar 1


D|---------------------------|
A|-5h6p5-5-5h6p5---3---3-3-3-|
F|---------------5---5-------|
C|---------------------------|
G|---------------------------|
C|---------------------------|

Guitar 2 (Distorted)


D|---------------------------------------|
A|---------------------------------------|
F|---------------------------------------|
C|---------------------------------------|
G|-0-0--0--0-0--3--0--0-0--0--0-0--3--0--|
C|-0-0--0--0-0--3--0--0-0--0--0-0--3--0--|

(Guitar 1) (Clean) (Flanger)


D|-----------------------------------------------------------------------|
A|-10-10-10-10-10-10-10-10-10-10-10-10-13-10-10-10-10-10-10-10-10-10-8-8-|
F|-----------------------------------------------------------------------|
C|-----------------------------------------------------------------------|
G|-----------------------------------------------------------------------|
C|-----------------------------------------------------------------------|

Guitar 2 (Distorted)


D|--------------------------------------------|
A|--------------------------------------------|
F|--------------------------------------------|
C|-1210-1010----------1010-10-1010------------|
G|-108--8-8--8-8-8-8--8-8--8--8-8--8-8-8-8----|
C|-108--8-8--8-8-8-8--8-8--8--8-8--8-8-8-8----|

. . . . . . . .

Guitar 1 (Clean) (Flanger)


D|---------------------------|
A|-5h6p5-5-5h6p5---3---3-3-3-|
F|---------------5---5-------|
C|---------------------------|
G|---------------------------|
C|---------------------------|

Guitar 2 (Distoreted)


D|---------------------------------------|
A|---------------------------------------|
F|---------------------------------------|
C|---------------------------------------|
G|-0-0--0--0-0--3--0--0-0--0--0-0--3--0--|
C|-0-0--0--0-0--3--0--0-0--0--0-0--3--0--|

Verse

Guitar 1 (Clean) (Flanger)


D|-------------------|R|-------------------------|
A|-6p5--5--5-5--5--5-|E|-8-8-8-8-8-8-5-5-5-5-5-5-|
F|-5-5--5--5-5--5--5-|P|-5-5-5-5-5-5-5-5-5-5-5-5-|
C|-7-7--7--7-7--7--7-|E|-7-7-7-7-7-7-7-7-7-7-7-7-|
G|-------------------|A|-------------------------|
C|-------------------|T|-------------------------|

X
Guitar 2 (Distorted)


D|--------------------|--------------------|
A|--------------------|--------------------|
F|-10-----------------|--------------------|
C|-10-----------------|--------------------|
G|-8------------------|--------------------|
C|-8------------------|--------------------|

Guitar 1 (Clean) (Flanger)


D|-------------------|R|-------------------------|
A|-6p5--5--5-5--5--5-|E|-8-8-8-8-8-8-5-5-5-5-5-5-|
F|-5-5--5--5-5--5--5-|P|-5-5-5-5-5-5-5-5-5-5-5-5-|
C|-7-7--7--7-7--7--7-|E|-7-7-7-7-7-7-7-7-7-7-7-7-|
G|-------------------|A|-------------------------|
C|-------------------|T|-------------------------|

X

Guitar 2 (Distorted)


D|--------------------|--------------------|
A|--------------------|--------------------|
F|--------------------|--------------------|
C|--------------------|--------------------|
G|--------------------|---------------3--1-|
C|--------------------|---------------3--1-|

Chorus 1

Guitar 2 (distorted)


D|---------------------------------------------------------------------------------------|
A|---------------------------------------------------------------------------------------|
F|-----------8-8-8-8-8-7-----------8-8-8-8-8-7-----------8-8-8-8-8-7---------------------|
C|-----------X-X-X-X-X-X-----------X-X-X-X-X-X-----------X-X-X-X-X-X---------------------|
G|-0-0--0--0-6-6-6-6-6-5-1-0--0--0-6-6-6-6-6-5-1-0--0--0-6-6-6-6-6-5-1-0--0--0-1-0--0--0-|
C|-0-0--0--0-------------1-0--0--0-------------1-0--0--0-------------1-0--0--0-1-0--0--0-|

Guitar 2 (distorted)


D|------------------------------------------------------------------------------------------|
A|------------------------------------------------------------------------------------------|
F|--------------8-8-8-8-8-7-----------8-8-8-8-8-7-----------8-8-8-8-8-7---------------------|
C|--------------X-X-X-X-X-X-----------X-X-X-X-X-X-----------X-X-X-X-X-X---------------------|
G|-1--0-0--0--0-6-6-6-6-6-5-1-0--0--0-6-6-6-6-6-5-1-0--0--0-6-6-6-6-6-5-1-0--0--0-1-0--0--0-|
C|-1--0-0--0--0-------------1-0--0--0-------------1-0--0--0-------------1-0--0--0-1-0--0--0-|

Verse

Guitar 1 (Clean) (Flanger)


D|-------------------|R|-------------------------|
A|-6p5--5--5-5--5--5-|E|-8-8-8-8-8-8-5-5-5-5-5-5-|
F|-5-5--5--5-5--5--5-|P|-5-5-5-5-5-5-5-5-5-5-5-5-|
C|-7-7--7--7-7--7--7-|E|-7-7-7-7-7-7-7-7-7-7-7-7-|
G|-------------------|A|-------------------------|
C|-------------------|T|-------------------------|

X
Guitar 2 (Distorted)


D|--------------------------------------------------------------------|
A|--------------------------------------------------------------------|
F|--------------------------------------------------------------------|
C|-10-10-1010-10-10-10-10-1010-10-10----------------------------------|
G|-8--8--8-8--8--8--8--8--8-8--8--8--0--0--0-0--0--0--0--0--0-0--0--0-|
C|-8--8--8-8--8--8--8--8--8-8--8--8--0--0--0-0--0--0--0--0--0-0--0--0-|

Guitar 1 (Clean) (Flanger)


D|-------------------|R|-------------------------|
A|-6p5--5--5-5--5--5-|E|-8-8-8-8-8-8-5-5-5-5-5-5-|
F|-5-5--5--5-5--5--5-|P|-5-5-5-5-5-5-5-5-5-5-5-5-|
C|-7-7--7--7-7--7--7-|E|-7-7-7-7-7-7-7-7-7-7-7-7-|
G|-------------------|A|-------------------------|
C|-------------------|T|-------------------------|

X

Guitar 2 (Distorted)


D|--------------------------------------------------------------------|
A|--------------------------------------------------------------------|
F|--------------------------------------------------------------------|
C|-10-10-1010-10-10-10-10-1010-10-10----------------------------------|
G|-8--8--8-8--8--8--8--8--8-8--8--8--0--0--0-0--0--0--0--0--0-0--0--0-|
C|-8--8--8-8--8--8--8--8--8-8--8--8--0--0--0-0--0--0--0--0--0-0--0--0-|

play this 3 1
last time 3 1

Chorus 1

Guitar 2 (distorted)


D|---------------------------------------------------------------------------------------|
A|---------------------------------------------------------------------------------------|
F|-----------8-8-8-8-8-7-----------8-8-8-8-8-7-----------8-8-8-8-8-7---------------------|
C|-----------X-X-X-X-X-X-----------X-X-X-X-X-X-----------X-X-X-X-X-X---------------------|
G|-0-0--0--0-6-6-6-6-6-5-1-0--0--0-6-6-6-6-6-5-1-0--0--0-6-6-6-6-6-5-1-0--0--0-1-0--0--0-|
C|-0-0--0--0-------------1-0--0--0-------------1-0--0--0-------------1-0--0--0-1-0--0--0-|

Guitar 2 (distorted)


D|------------------------------------------------------------------------------------------|
A|------------------------------------------------------------------------------------------|
F|--------------8-8-8-8-8-7-----------8-8-8-8-8-7-----------8-8-8-8-8-7---------------------|
C|--------------X-X-X-X-X-X-----------X-X-X-X-X-X-----------X-X-X-X-X-X---------------------|
G|-1--0-0--0--0-6-6-6-6-6-5-1-0--0--0-6-6-6-6-6-5-1-0--0--0-6-6-6-6-6-5-1-0--0--0-1-0--0--0-|
C|-1--0-0--0--0-------------1-0--0--0-------------1-0--0--0-------------1-0--0--0-1-0--0--0-|

Chorus 2

Guitar 1 (Distorted)


D|----5-----8--6--------8--6------|
A|-8-----6-------10----------10---|
F|------------------10---------10-|
C|--------------------------------|
G|--------------------------------|
C|--------------------------------|

Guitar 2 (Distorted)


D|-----------------------------------------------------------------------------------|
A|-----------------------------------------------------------------------------------|
F|-----------------------------------------------------------------------------------|
C|-7--7-7--7-7--7--7--7/10-10-1010---------------------------------------------------|
G|-5--5-5--5-5--5--5--5/8--8--8-8--1p0-1p0-1-0--0--0-0--1p0-0h1-1-0--0--0-0--1p0-0h1-|
C|-5--5-5--5-5--5--5--5/8--8--8-8--1p0-1p0-1-0--0--0-0--1p0-0h1-1-0--0--0-0--1p0-0h1-|

Bridge 1

Guitar 1 (Distorted)


D|-8--6--------8--6-----------|
A|------10----------10--------|
F|---------10---------10------|
C|----------------------------|
G|----------------------------|
C|----------------------------|

Guitar 2 (Clean) Turns Up Distortion


D|-1p0------0---1-------1-0---3-0---1-0----0-------1p0------0---1-------3-1-0-1-|
A|-----------------------------------------1-------------------------------------|
F|-----2------2-------------2-----2-----2--2-----------2------2------------------|
C|-------------------------------------------------------------------------------|
G|-------------------------------------------------------------------------------|
C|----------------0------------------------------------------------0-------------|

Guitar 3 (Clean)


D|--------------------------------------|
A|--------------------------------------|
F|--------------------------------------|
C|-3-----------------------3------------|
G|-1-----------0-----------1----------0-|
C|-------------0----------------------0-|

Bridge 2

Guitar 2 (Distortion)


D|-------------------------------------------------------------|
A|-------------------------------------------------------------|
F|-------------10-10-10-10-10-10-------------10-10-10-10-10-10-|
C|--------------X--X--X--X--X--X--------------X--X--X--X--X--X-|
G|-8-8-8-8-8-8-8--8--8--8--8--8--8-8-8-8-8-8-8--8--8--8--8--8--|
C|-8-8-8-8-8-8-------------------8-8-8-8-8-8-------------------|

. . . . . . . . . . . .


D|-------------------------------------------------------------|
A|-------------------------------------------------------------|
F|-------------14-14-14-14-14-14-------------14-14-14-14-14-14-|
C|--------------X--X--X--X--X--X--------------X--X--X--X--X--X-|
G|-0-0-0-0-0-0-12-12-12-12-12-12-0-0-0-0-0-0-12-12-12-12-12-12-|
C|-0-0-0-0-0-0-------------------0-0-0-0-0-0-------------------|

. . . . . . . . . . . .

Bridge 3

Guitar 2 (Distortion)


D|------------------------------------------------------------------------------------|
A|------------------------------------------------------------------------------------|
F|--------------8--8--8-7-----------8--8--8-7-----------8--8--8-7---------------------|
C|--------------8--8--8-7-----------8--8--8-7-----------8--8--8-7---------------------|
G|-1--0-0--0--0-6--6--6-5-1-0--0--0-6--6--6-5-1-0--0--0-6--6--6-5-1-0--0--0-1-0--0--0-|
C|-1--0-0--0--0-----------1-0--0--0-----------1-0--0--0-----------1-0--0--0-1-0--0--0-|

Chorus 2

Guitar 1 (Distorted)


D|----5-----8--6--------8--6------|
A|-8-----6-------10----------10---|
F|------------------10---------10-|
C|--------------------------------|
G|--------------------------------|
C|--------------------------------|

Guitar 2 (Distorted)


D|-----------------------------------------------------------------------------------|
A|-----------------------------------------------------------------------------------|
F|-----------------------------------------------------------------------------------|
C|-7--7-7--7-7--7--7--7/10-10-1010---------------------------------------------------|
G|-5--5-5--5-5--5--5--5/8--8--8-8--1p0-1p0-1-0--0--0-0--1p0-0h1-1-0--0--0-0--1p0-0h1-|
C|-5--5-5--5-5--5--5--5/8--8--8-8--1p0-1p0-1-0--0--0-0--1p0-0h1-1-0--0--0-0--1p0-0h1-|

Ending

Guitar 2 (Distortion)


D|-------------------------------------------------------------|
A|-------------------------------------------------------------|
F|-------------14-14-14-14-14-14-------------14-14-14-14-14-14-|
C|--------------X--X--X--X--X--X--------------X--X--X--X--X--X-|
G|-0-0-0-0-0-0-12-12-12-12-12-12-0-0-0-0-0-0-12-12-12-12-12-12-|
C|-0-0-0-0-0-0-------------------0-0-0-0-0-0-------------------|

. . . . . . . . . . . .


D|-------------------------------------------------------------|
A|-------------------------------------------------------------|
F|-------------14-14-14-14-14-14-------------14-14-14-14-15-14-|
C|--------------X--X--X--X--X--X--------------X--X--X--X--X--X-|
G|-0-0-0-0-0-0-12-12-12-12-12-12-0-0-0-0-0-0-12-12-12-12-13-12-|
C|-0-0-0-0-0-0-------------------0-0-0-0-0-0-------------------|

. . . . . . . . . . . .


D|-------------------------------------------------------------|
A|-------------------------------------------------------------|
F|-------------14-14-14-14-14-14-------------14-14-14-14-14-14-|
C|--------------X--X--X--X--X--X--------------X--X--X--X--X--X-|
G|-0-0-0-0-0-0-12-12-12-12-12-12-0-0-0-0-0-0-12-12-12-12-12-12-|
C|-0-0-0-0-0-0-------------------0-0-0-0-0-0-------------------|

. . . . . . . . . . . .


D|---------------------------------------------------------------------|
A|---------------------------------------------------------------------|
F|-------------14-14-14-14-14-14-14-14-14-15-14-14-14-14-14-15-14-14---|
C|--------------X--X--X--X--X--X--X--X--X--X_-X--X--X_-X--X--X--X--X---|
G|-0-0-0-0-0-0-12-12-12-12-12-12-12-12-12-13-12-12-12-12-12-13-12-12-0-|
C|-0-0-0-0-0-0-------------------------------------------------------0-|

. . . . . .

To play the most songs, including Neither Here nor Missed by Dry Kill Logic by ukulele, the most important basic ukulele chords to learn are C chord, D chord, G chord, and Em chord.
These set you up to play a ton of songs, and each of them is easy to learn.

If you are searching for Rot ukulele chords, you’ve visit to the right site.
You can play versatile instrument Rot using ukulele or guitar.
This song by Dry Kill Logic can also be played by that instruments.
=

Rot chords has rhythm and included in The Darker Side of Nonsense (2001) album.
You can also get another musical genres, including jazz ukulele chords, country music ukulele chords, pop ukulele chords, world music ukulele chords, and rock ukulele chords here.

Rot by Dry Kill Logic Ukulele Chords


Band: Dry Kill Logic

Tuning: Drop C

Intro:

D|———————-|
A|———————-|
F|———————-|
C|———————-|
G|———————-|
C|-0-0-0-0-1p0–0h1–1–|

pm …….

D|——————————|
A|——————————|
F|——————————|
C|-0-0-0-0–1–0–0-0-0-0–0–1-|
G|-0-0-0-0–1–0–0-0-0-0–0–1-|
C|-0-0-0-0–1–0–0-0-0-0–0–1-|

Intro2/Verse1

D|———————————-|
A|———————————-|
F|———————————-|
C|———————————-|
G|———————————-|
C|-0-0-0-0-0-0-0h1–0-0-0-0-0-0–0–|
D|———————————-|
A|———————————-|
F|———————————-|
C|-0-0-0-0-0-0-0h1–0-0-0-0-0-0–0–|
G|-0-0-0-0-0-0-0h1–0-0-0-0-0-0–0–|
C|-0-0-0-0-0-0-0h1–0-0-0-0-0-0–0–| This riff is also played

palm-muted when the song comes in:
Interlude:

D|—————————-| |—————————-|
A|—————————-| |—————————-|
F|—————————-| |—————————-|
C|—————————-| then…|—————————-|
G|——————–0h1-2-0-| |-0-0–0h1-1–0-0-0–0h1-2-0-|
C|-0-0–0h1-1–0-0-0–0h1-2-0-| |-0-0–0h1-1–0-0-0–0h1-2-0-|

Play this over the palm-muted riff with a some type of effect
and tremolo pick each note. for how long to play each note you’ll
have to listen…it’s not so hard to figure out.

D|——————|
A|——————|
F|–8/7—8/714—-|
C|——————|
G|——————|
C|——————|

Interlude 2:

D|———————————————-|
A|———————————————-|
F|———————————————-|
C|———————————————-|
G|———————————————-|
C|-0-00-2^-0-00-2^-0-2^–0-00-2^-0-00-6^-0-6^—|

Ending:

D|—————————————–|
A|—————————————–|
F|—————————————–|
C|-0-1-0-0-0-0-0-0h1–0-1-0-0-0-00-0-00-0–|
G|-0-1-0-0-0-0-0-0h1–0-1-0-0-0-00-0-00-0–|
C|-0-1-0-0-0-0-0-0h1–0-1-0-0-0-00-0-00-0–|

To play the this songs, including Rot by Dry Kill Logic by ukulele, the most important basic ukulele chords to learn are C chord, D chord, G chord, and Em chord.
These set you up to play a many of songs, and each of them is easy to master.

If you are looking for Neither Here nor Missed ukulele chords, you’ve visit to the right place.
You can play versatile instrument Neither Here nor Missed using ukulele or guitar.
This song by Dry Kill Logic can also be played by that instruments.
=

Neither Here nor Missed chords has rhythm and included in The Dead and Dreaming (2004) album.
You can also find other musical style, including jazz ukulele chords, country music ukulele chords, pop ukulele chords, world music ukulele chords, and rock ukulele chords here.

Neither Here nor Missed by Dry Kill Logic Ukulele Chords


So I basically found this tab and decided to put it here,
because I’m sure quite a few people might stumble on to this
site before any other. So the real credit for this song goes
to Dave Bordon (dbordon@optusnet.com.au), and here is a
link to his original work

http://www.ttabs.com/tabs.php?id199639

– Slide Down
/ – Slide Up
. – Palm Mute
h – hammer on
p – pull off

Bass Intro Tabbed for Guitar


D|-----------------------------------|
A|-----------------------------------|
F|-----------------------------------|
C|-----------------------------------|
G|----0-0h1p0----0-1---0-0h1p0---3-1-|
C|-0----------0------0---------0-----|

Intro (Guitar 1) (Clean) (Flanger)


D|-----------------------------------------------------------------------------|
A|-6--6--6-6--6--6--65--5--5-5--5--5--5/6--6--6-6--6--6--6/8--8--8-10--8--8----|
F|-7--7--7-7--7--7--7-7--7--7-7--7--7--7-7--7--7-7--7--7--7-7--7--7--7--7--7---|
C|-0--0--0-0--0--0--0-0--0--0-0--0--0--0-0--0--0-0--0--0--0-0--0--0--0--0--0---|
G|-----------------------------------------------------------------------------|
C|-----------------------------------------------------------------------------|
D|----------------------------------------------------------------------------|
A|-6--6--6-6--6--6--65--5--5-5--5--5--5/6--6--6-6--6--6--6/8--8--8-8--8--8----|
F|-7--7--7-7--7--7--7-7--7--7-7--7--7--7-7--7--7-7--7--7--7-7--7--7-7--7--7---|
C|-0--0--0-0--0--0--0-0--0--0-0--0--0--0-0--0--0-0--0--0--0-0--0--0-0--0--0---|
G|----------------------------------------------------------------------------|
C|----------------------------------------------------------------------------|

Intro 2 (Guitar 1) (Clean) (Flanger)


D|-----------------------------------------------------------|
A|-13-10-10-10-10-10-10-10-10-10-10-10-10-8--8--8-8--8-8-8-8-|
F|-----------------------------------------------------------|
C|-----------------------------------------------------------|
G|-----------------------------------------------------------|
C|-----------------------------------------------------------|

Guitar 2 (Distorted)


D|--------------------------------------------|
A|--------------------------------------------|
F|--------------------------------------------|
C|-1210-1010----------1010-10-1010------------|
G|-108--8-8--8-8-8-8--8-8--8--8-8--8-8-8-8----|
C|-108--8-8--8-8-8-8--8-8--8--8-8--8-8-8-8----|

. . . . . . . .

Guitar 1


D|---------------------------|
A|-5h6p5-5-5h6p5---3---3-3-3-|
F|---------------5---5-------|
C|---------------------------|
G|---------------------------|
C|---------------------------|

Guitar 2 (Distorted)


D|---------------------------------------|
A|---------------------------------------|
F|---------------------------------------|
C|---------------------------------------|
G|-0-0--0--0-0--3--0--0-0--0--0-0--3--0--|
C|-0-0--0--0-0--3--0--0-0--0--0-0--3--0--|

(Guitar 1) (Clean) (Flanger)


D|-----------------------------------------------------------------------|
A|-10-10-10-10-10-10-10-10-10-10-10-10-13-10-10-10-10-10-10-10-10-10-8-8-|
F|-----------------------------------------------------------------------|
C|-----------------------------------------------------------------------|
G|-----------------------------------------------------------------------|
C|-----------------------------------------------------------------------|

Guitar 2 (Distorted)


D|--------------------------------------------|
A|--------------------------------------------|
F|--------------------------------------------|
C|-1210-1010----------1010-10-1010------------|
G|-108--8-8--8-8-8-8--8-8--8--8-8--8-8-8-8----|
C|-108--8-8--8-8-8-8--8-8--8--8-8--8-8-8-8----|

. . . . . . . .

Guitar 1 (Clean) (Flanger)


D|---------------------------|
A|-5h6p5-5-5h6p5---3---3-3-3-|
F|---------------5---5-------|
C|---------------------------|
G|---------------------------|
C|---------------------------|

Guitar 2 (Distoreted)


D|---------------------------------------|
A|---------------------------------------|
F|---------------------------------------|
C|---------------------------------------|
G|-0-0--0--0-0--3--0--0-0--0--0-0--3--0--|
C|-0-0--0--0-0--3--0--0-0--0--0-0--3--0--|

Verse

Guitar 1 (Clean) (Flanger)


D|-------------------|R|-------------------------|
A|-6p5--5--5-5--5--5-|E|-8-8-8-8-8-8-5-5-5-5-5-5-|
F|-5-5--5--5-5--5--5-|P|-5-5-5-5-5-5-5-5-5-5-5-5-|
C|-7-7--7--7-7--7--7-|E|-7-7-7-7-7-7-7-7-7-7-7-7-|
G|-------------------|A|-------------------------|
C|-------------------|T|-------------------------|

X
Guitar 2 (Distorted)


D|--------------------|--------------------|
A|--------------------|--------------------|
F|-10-----------------|--------------------|
C|-10-----------------|--------------------|
G|-8------------------|--------------------|
C|-8------------------|--------------------|

Guitar 1 (Clean) (Flanger)


D|-------------------|R|-------------------------|
A|-6p5--5--5-5--5--5-|E|-8-8-8-8-8-8-5-5-5-5-5-5-|
F|-5-5--5--5-5--5--5-|P|-5-5-5-5-5-5-5-5-5-5-5-5-|
C|-7-7--7--7-7--7--7-|E|-7-7-7-7-7-7-7-7-7-7-7-7-|
G|-------------------|A|-------------------------|
C|-------------------|T|-------------------------|

X

Guitar 2 (Distorted)


D|--------------------|--------------------|
A|--------------------|--------------------|
F|--------------------|--------------------|
C|--------------------|--------------------|
G|--------------------|---------------3--1-|
C|--------------------|---------------3--1-|

Chorus 1

Guitar 2 (distorted)


D|---------------------------------------------------------------------------------------|
A|---------------------------------------------------------------------------------------|
F|-----------8-8-8-8-8-7-----------8-8-8-8-8-7-----------8-8-8-8-8-7---------------------|
C|-----------X-X-X-X-X-X-----------X-X-X-X-X-X-----------X-X-X-X-X-X---------------------|
G|-0-0--0--0-6-6-6-6-6-5-1-0--0--0-6-6-6-6-6-5-1-0--0--0-6-6-6-6-6-5-1-0--0--0-1-0--0--0-|
C|-0-0--0--0-------------1-0--0--0-------------1-0--0--0-------------1-0--0--0-1-0--0--0-|

Guitar 2 (distorted)


D|------------------------------------------------------------------------------------------|
A|------------------------------------------------------------------------------------------|
F|--------------8-8-8-8-8-7-----------8-8-8-8-8-7-----------8-8-8-8-8-7---------------------|
C|--------------X-X-X-X-X-X-----------X-X-X-X-X-X-----------X-X-X-X-X-X---------------------|
G|-1--0-0--0--0-6-6-6-6-6-5-1-0--0--0-6-6-6-6-6-5-1-0--0--0-6-6-6-6-6-5-1-0--0--0-1-0--0--0-|
C|-1--0-0--0--0-------------1-0--0--0-------------1-0--0--0-------------1-0--0--0-1-0--0--0-|

Verse

Guitar 1 (Clean) (Flanger)


D|-------------------|R|-------------------------|
A|-6p5--5--5-5--5--5-|E|-8-8-8-8-8-8-5-5-5-5-5-5-|
F|-5-5--5--5-5--5--5-|P|-5-5-5-5-5-5-5-5-5-5-5-5-|
C|-7-7--7--7-7--7--7-|E|-7-7-7-7-7-7-7-7-7-7-7-7-|
G|-------------------|A|-------------------------|
C|-------------------|T|-------------------------|

X
Guitar 2 (Distorted)


D|--------------------------------------------------------------------|
A|--------------------------------------------------------------------|
F|--------------------------------------------------------------------|
C|-10-10-1010-10-10-10-10-1010-10-10----------------------------------|
G|-8--8--8-8--8--8--8--8--8-8--8--8--0--0--0-0--0--0--0--0--0-0--0--0-|
C|-8--8--8-8--8--8--8--8--8-8--8--8--0--0--0-0--0--0--0--0--0-0--0--0-|

Guitar 1 (Clean) (Flanger)


D|-------------------|R|-------------------------|
A|-6p5--5--5-5--5--5-|E|-8-8-8-8-8-8-5-5-5-5-5-5-|
F|-5-5--5--5-5--5--5-|P|-5-5-5-5-5-5-5-5-5-5-5-5-|
C|-7-7--7--7-7--7--7-|E|-7-7-7-7-7-7-7-7-7-7-7-7-|
G|-------------------|A|-------------------------|
C|-------------------|T|-------------------------|

X

Guitar 2 (Distorted)


D|--------------------------------------------------------------------|
A|--------------------------------------------------------------------|
F|--------------------------------------------------------------------|
C|-10-10-1010-10-10-10-10-1010-10-10----------------------------------|
G|-8--8--8-8--8--8--8--8--8-8--8--8--0--0--0-0--0--0--0--0--0-0--0--0-|
C|-8--8--8-8--8--8--8--8--8-8--8--8--0--0--0-0--0--0--0--0--0-0--0--0-|

play this 3 1
last time 3 1

Chorus 1

Guitar 2 (distorted)


D|---------------------------------------------------------------------------------------|
A|---------------------------------------------------------------------------------------|
F|-----------8-8-8-8-8-7-----------8-8-8-8-8-7-----------8-8-8-8-8-7---------------------|
C|-----------X-X-X-X-X-X-----------X-X-X-X-X-X-----------X-X-X-X-X-X---------------------|
G|-0-0--0--0-6-6-6-6-6-5-1-0--0--0-6-6-6-6-6-5-1-0--0--0-6-6-6-6-6-5-1-0--0--0-1-0--0--0-|
C|-0-0--0--0-------------1-0--0--0-------------1-0--0--0-------------1-0--0--0-1-0--0--0-|

Guitar 2 (distorted)


D|------------------------------------------------------------------------------------------|
A|------------------------------------------------------------------------------------------|
F|--------------8-8-8-8-8-7-----------8-8-8-8-8-7-----------8-8-8-8-8-7---------------------|
C|--------------X-X-X-X-X-X-----------X-X-X-X-X-X-----------X-X-X-X-X-X---------------------|
G|-1--0-0--0--0-6-6-6-6-6-5-1-0--0--0-6-6-6-6-6-5-1-0--0--0-6-6-6-6-6-5-1-0--0--0-1-0--0--0-|
C|-1--0-0--0--0-------------1-0--0--0-------------1-0--0--0-------------1-0--0--0-1-0--0--0-|

Chorus 2

Guitar 1 (Distorted)


D|----5-----8--6--------8--6------|
A|-8-----6-------10----------10---|
F|------------------10---------10-|
C|--------------------------------|
G|--------------------------------|
C|--------------------------------|

Guitar 2 (Distorted)


D|-----------------------------------------------------------------------------------|
A|-----------------------------------------------------------------------------------|
F|-----------------------------------------------------------------------------------|
C|-7--7-7--7-7--7--7--7/10-10-1010---------------------------------------------------|
G|-5--5-5--5-5--5--5--5/8--8--8-8--1p0-1p0-1-0--0--0-0--1p0-0h1-1-0--0--0-0--1p0-0h1-|
C|-5--5-5--5-5--5--5--5/8--8--8-8--1p0-1p0-1-0--0--0-0--1p0-0h1-1-0--0--0-0--1p0-0h1-|

Bridge 1

Guitar 1 (Distorted)


D|-8--6--------8--6-----------|
A|------10----------10--------|
F|---------10---------10------|
C|----------------------------|
G|----------------------------|
C|----------------------------|

Guitar 2 (Clean) Turns Up Distortion


D|-1p0------0---1-------1-0---3-0---1-0----0-------1p0------0---1-------3-1-0-1-|
A|-----------------------------------------1-------------------------------------|
F|-----2------2-------------2-----2-----2--2-----------2------2------------------|
C|-------------------------------------------------------------------------------|
G|-------------------------------------------------------------------------------|
C|----------------0------------------------------------------------0-------------|

Guitar 3 (Clean)


D|--------------------------------------|
A|--------------------------------------|
F|--------------------------------------|
C|-3-----------------------3------------|
G|-1-----------0-----------1----------0-|
C|-------------0----------------------0-|

Bridge 2

Guitar 2 (Distortion)


D|-------------------------------------------------------------|
A|-------------------------------------------------------------|
F|-------------10-10-10-10-10-10-------------10-10-10-10-10-10-|
C|--------------X--X--X--X--X--X--------------X--X--X--X--X--X-|
G|-8-8-8-8-8-8-8--8--8--8--8--8--8-8-8-8-8-8-8--8--8--8--8--8--|
C|-8-8-8-8-8-8-------------------8-8-8-8-8-8-------------------|

. . . . . . . . . . . .


D|-------------------------------------------------------------|
A|-------------------------------------------------------------|
F|-------------14-14-14-14-14-14-------------14-14-14-14-14-14-|
C|--------------X--X--X--X--X--X--------------X--X--X--X--X--X-|
G|-0-0-0-0-0-0-12-12-12-12-12-12-0-0-0-0-0-0-12-12-12-12-12-12-|
C|-0-0-0-0-0-0-------------------0-0-0-0-0-0-------------------|

. . . . . . . . . . . .

Bridge 3

Guitar 2 (Distortion)


D|------------------------------------------------------------------------------------|
A|------------------------------------------------------------------------------------|
F|--------------8--8--8-7-----------8--8--8-7-----------8--8--8-7---------------------|
C|--------------8--8--8-7-----------8--8--8-7-----------8--8--8-7---------------------|
G|-1--0-0--0--0-6--6--6-5-1-0--0--0-6--6--6-5-1-0--0--0-6--6--6-5-1-0--0--0-1-0--0--0-|
C|-1--0-0--0--0-----------1-0--0--0-----------1-0--0--0-----------1-0--0--0-1-0--0--0-|

Chorus 2

Guitar 1 (Distorted)


D|----5-----8--6--------8--6------|
A|-8-----6-------10----------10---|
F|------------------10---------10-|
C|--------------------------------|
G|--------------------------------|
C|--------------------------------|

Guitar 2 (Distorted)


D|-----------------------------------------------------------------------------------|
A|-----------------------------------------------------------------------------------|
F|-----------------------------------------------------------------------------------|
C|-7--7-7--7-7--7--7--7/10-10-1010---------------------------------------------------|
G|-5--5-5--5-5--5--5--5/8--8--8-8--1p0-1p0-1-0--0--0-0--1p0-0h1-1-0--0--0-0--1p0-0h1-|
C|-5--5-5--5-5--5--5--5/8--8--8-8--1p0-1p0-1-0--0--0-0--1p0-0h1-1-0--0--0-0--1p0-0h1-|

Ending

Guitar 2 (Distortion)


D|-------------------------------------------------------------|
A|-------------------------------------------------------------|
F|-------------14-14-14-14-14-14-------------14-14-14-14-14-14-|
C|--------------X--X--X--X--X--X--------------X--X--X--X--X--X-|
G|-0-0-0-0-0-0-12-12-12-12-12-12-0-0-0-0-0-0-12-12-12-12-12-12-|
C|-0-0-0-0-0-0-------------------0-0-0-0-0-0-------------------|

. . . . . . . . . . . .


D|-------------------------------------------------------------|
A|-------------------------------------------------------------|
F|-------------14-14-14-14-14-14-------------14-14-14-14-15-14-|
C|--------------X--X--X--X--X--X--------------X--X--X--X--X--X-|
G|-0-0-0-0-0-0-12-12-12-12-12-12-0-0-0-0-0-0-12-12-12-12-13-12-|
C|-0-0-0-0-0-0-------------------0-0-0-0-0-0-------------------|

. . . . . . . . . . . .


D|-------------------------------------------------------------|
A|-------------------------------------------------------------|
F|-------------14-14-14-14-14-14-------------14-14-14-14-14-14-|
C|--------------X--X--X--X--X--X--------------X--X--X--X--X--X-|
G|-0-0-0-0-0-0-12-12-12-12-12-12-0-0-0-0-0-0-12-12-12-12-12-12-|
C|-0-0-0-0-0-0-------------------0-0-0-0-0-0-------------------|

. . . . . . . . . . . .


D|---------------------------------------------------------------------|
A|---------------------------------------------------------------------|
F|-------------14-14-14-14-14-14-14-14-14-15-14-14-14-14-14-15-14-14---|
C|--------------X--X--X--X--X--X--X--X--X--X_-X--X--X_-X--X--X--X--X---|
G|-0-0-0-0-0-0-12-12-12-12-12-12-12-12-12-13-12-12-12-12-12-13-12-12-0-|
C|-0-0-0-0-0-0-------------------------------------------------------0-|

. . . . . .

To play the this songs, including Neither Here nor Missed by Dry Kill Logic by ukulele, the most important basic ukulele chords to learn are C chord, D chord, G chord, and Em chord.
These set you up to play a many of songs, and each of them is easy to learn.

If you are searching for Goodnight ukulele chords, you already come to the best site.
You can play versatile instrument Goodnight using ukulele or guitar.
This song by Dry Kill Logic can also be played by that instruments.
=

Goodnight chords has rhythm and included in The Darker Side of Nonsense (2001) album.
You can also get another musical style, including jazz ukulele chords, country music ukulele chords, pop ukulele chords, world music ukulele chords, and rock ukulele chords here.

Goodnight by Dry Kill Logic Ukulele Chords

This is my first attempt at a tab so please if there are any corrections
or alternative suggestions out there feel free to e-mail me…

Tuning – EADGBE

Chords Used : Em 0220xx
C x32010
Cadd9 x32033
Em11 077777

Intro/Verse


E|-0------------------------------------------------------------------
B|---0h1p0-----0h1--1-------3p1------3-----3--1------0------0-0h1-----
G|----------0---------0---------0------0--------0------0----------0---
D|-2--------------------2---------2------2--------2------2----------2-
A|-------------3----------3-------------------------------------------
E|--------------------------------------------------------------------


E|-0------------------------3p0--------------------------------------------
B|---0h1p0-----0h1--1----------------3-----1------0------1-------3-1-0-----
G|----------0---------0---------0------0-----0------0------0-----------0---
D|-2--------------------2---------2------2-----2------2------2-----------2-
A|-------------3----------3------------------------------------------------
E|-------------------------------------------------------------------------

End of Verse
Em C (strum from here)


E|-0----------|-0-
B|---0h1p0----|-1-
G|----------0-|-0-
D|-2----------|-2-
A|------------|-3-
E|------------|---

Bridge


E|---------------------------------------------------------
B|---------------------------------------------------------
G|-------0-----0-----0-----0--------0------0-----0-----0---
D|-----9-----9-----7-----9-------10-----10-----5-----4---4-
A|---7-----7-----5-----7-----7-8------8------3-----2-------
E|-0-------------------------------------------------------

Chorus

Strum around with the Cadd9 chord


End of Song
C(Strum)


E|-0----------------0-|
B|-1----------------1-|
G|-0-----------0----0-|
D|-2---------4---4--2-|
A|-3-------5--------3-|
E|--------------------|

Lyrics and Construction

[INTRO/VERSE]
Now that I
Face the world with pain inside
Strange but I
Can’t understand the reasons why.
Forever is
A world that I cannot describe

[END OF VERSE]
That Died the time we said goodnight.


…..……….It makes no difference, wrong or……………right
The time has come to say goodnight.


And how could I
Be so sure but be so wrong?
And how could I?
Have a will so weak with a mind so strong?

[END OF VERSE]
And Only I
Can tell the difference right or wrong.


…..……….It makes no difference, wrong or……………right
I guess it’s best we say goodnight.

[END OF SONG]

To play the this songs, including Goodnight by Dry Kill Logic by ukulele, the most crucial basic ukulele chords to learn are C chord, D chord, G chord, and Em chord.
These set you up to play a many of songs, and each of them is easy to learn.