If you are searching for Wake Up Dreaming Black ukulele chords, you already visit to the best place.
You can play versatile instrument Wake Up Dreaming Black using ukulele or guitar.
This song by Edguy can also be played by that instruments.
=

Wake Up Dreaming Black chords has rhythm and included in Tinnitus Sanctus (2008) album.
You can also find other musical genres, including jazz ukulele chords, country music ukulele chords, pop ukulele chords, world music ukulele chords, and rock ukulele chords here.

Wake Up Dreaming Black by Edguy Ukulele Chords


-------------------------------------------------------------------------------

Wake Up Dreaming Black – Edguy


-------------------------------------------------------------------------------

My first tab, hope you like it.
Tabbed by: MishkaTrishka

Tuning: Standard EADGBe

Intro


e|--/10--8--10b11--10------------/10--8--10b11--10---------------------------|
B|---------------------------------------------------------------------------|
G|---------------------------------------------------------------------------|
D|---------------------------------------------------------------------------|
A|---------------------------------------------------------------------------|
E|---------------------------------------------------------------------------|
e|--/10--8--10b11--10--------------10--8-------------------------------------|
B|----------------------------------------11--10--8--------------------------|
G|---------------------------------------------------10----------------------|
D|---------------------------------------------------------------------------|
A|---------------------------------------------------------------------------|
E|---------------------------------------------------------------------------|
e|--/10--8--10b11--10----------8-------/10--8--10b11--10---------------------|
B|--------------------------11-----------------------------------------------|
G|-----------------------10--------------------------------------------------|
D|---------------------------------------------------------------------------|
A|---------------------------------------------------------------------------|
E|---------------------------------------------------------------------------|
e|--/10--8--10b11--10-----------------10--8----------------------------------|
B|-------------------------------------------11--10--8-----------------------|
G|------------------------------------------------------10-------------------|
D|---------------------------------------------------------------------------|
A|---------------------------------------------------------------------------|
E|---------------------------------------------------------------------------|

Verse


e|---------------------------------------------------------------------------|
B|---------------------------------------------------------------------------|
G|---------------------------------------------------------------------------|
D|--7-----7------------------------------------------------------------------|
A|--5-----5------------------------------------------------------------------|
E|---------------------------------------------------------------------------|
e|---------------------------------------------------------------------------|
B|---------------------------------------------------------------------------|
G|---------------------------------------------------------------------------|
D|--7-----7-----7-------7----5----7----5------7-----7-----7----7----5----7~--|
A|--5--5--5-------5----3----5----3------5--5--5----5----3----5~--|
E|---------------------------------------------------------------------------|

Pre-Chorus


e|---------------------------------------------------------------------------|
B|--6----6-------------------------------------------------------------------|
G|--7----7-------------------------------------------------------------------|
D|--7----7-------------------------------------------------------------------|
A|--5----5-------------------------------------------------------------------|
E|---------------------------------------------------------------------------|

| / slide up
| slide down
| h hammer-on
| p pull-off
| ~ vibrato
| + harmonic
| x Mute note
|(5) Palm Mute
| b Bend
| pb Pre-bend
| br Bend release
| pbr Pre-bend release
| brb Bend release bend

To play the this songs, including Wake Up Dreaming Black by Edguy by ukulele, the most crucial basic ukulele chords to learn are C chord, D chord, G chord, and Em chord.
These set you up to play a a lot of songs, and each of them is easy to master.

If you are looking for Space Police ukulele chords, you have visit to the best place.
You can play versatile instrument Space Police using ukulele or guitar.
This song by Edguy can also be played by that instruments.
=

Space Police chords has rhythm and included in Space Police – Defenders of the Crown (2014) album.
You can also get another musical style, including jazz ukulele chords, country music ukulele chords, pop ukulele chords, world music ukulele chords, and rock ukulele chords here.

Space Police by Edguy Ukulele Chords



[C/E]
[Verse 1]
An ocean of stars gleaming like diamonds
How many times have we wondered what lies behind
And how do you wish to make explorations
And [Bb/D]travel through space and time
To the crest of forever

Shoot up to life out there what will it be like?
And if we’re much faster than light maybe I can see
What the shine of my ego looks like from a distance
And [Bb/D]what do they know about me
in faraway solar systems?

[Pre-chorus]
Oh, I dive in zero gravity
A glance at the all


We’re riding out, pass by the moon
Bird’s eyes view on the universe
We’re all about breaking the rules
”Freeze!” goes the space police

”You’re all about to make a fool
of yourself” Goes the space police
Cause you’re about to negate their rules
They’re the space police

[Instrumental]

[C/E]
[Verse 2]
Your visions caught speeding by free spiritis that you recognize by the look
Spacetrotting dissident freedom police contrarians by the book
Freedom and wisdom they guard from outside stars and infinity
[Bb/D]shaking their heads at the force
Into the black hole

[Pre-Chorus]
Oh, what looked like zero gravity
Is a gelatinous mass


We’re riding out, pass by the moon
Bird’s eyes view on the universe
We’re all about breaking the rules
”Freeze!” goes the space police

”You’re all about to make a fool
of yourself” Goes the space police
Cause you’re about to negate their rules
Watch out for the space police




Space police
Get me back on the straight and narrow
Space police
Law and order at the border to infinity
Space police
Ah ah
ah ah ah ah ah ah


We’re riding out, pass by the moon
Bird’s eyes view on the universe
We’re all about breaking the rules
”Freeze!” goes the space police

”You’re all about to make a fool
of yourself” Goes the space police
Cause you’re about to negate their rules
They’re the space police

We’re riding out, pass by the moon
Bird’s eyes view on the universe
We’re all about breaking the rules
”Freeze! Space police!”

To play the most songs, including Space Police by Edguy by ukulele, the most crucial basic ukulele chords to learn are C chord, D chord, G chord, and Em chord.
These set you up to play a many of songs, and each of them is easy to learn.

If you are searching for Falling Down ukulele chords, you have come to the right place.
You can play versatile instrument Falling Down using ukulele or guitar.
This song by Edguy can also be played by that instruments.
=

Falling Down chords has rhythm and included in Theater of Salvation (1999) album.
You can also get other musical style, including jazz ukulele chords, country music ukulele chords, pop ukulele chords, world music ukulele chords, and rock ukulele chords here.

Falling Down by Edguy Ukulele Chords


/////////////////////////

/////////////////////////

Disable word wrap under edit to view this document correctly!

Tablature explanation:

h hammer on . Palm mute
p pull off A.H Artificial harmonics
b Bend pb prebend
r release bend s slide

All guitars are 1/2 downed

(Intro:)


eb||----------|
Bb||10-8------|
Gb||-----10-9-|
Db||----------|
Ab||----------|
Eb||----------|

|| |


eb||----------|
Bb||----------|
Gb||10-9-7----|
Db||-------10-|
Ab||----------|
Eb||----------|


eb||-------------------|------------------|----------------|----------------

—-|


Bb||-----10---8--------|10b11r---8---10---|8---------------|-------8--8b10r-

—-|


Gb||10------------10---|------------------|----------------|9--10-----------

-9–|


Db||-------------------|------------------|----------------|----------------

—-|


Ab||-------------------|------------------|----------------|----------------

—-|


Eb||-------------------|------------------|----------------|----------------

—-|
||
|


eb||-------------------|------------------|----------------|----------------

—-|


Bb||-------------------|------------------|----------------|----------------

—-|


Gb||7---10---9---7-----|10b12r---9---10---|9---------------|----7--9--9b10r-

—-|


Db||-------------------|------------------|----------------|10--------------

-10-|


Ab||-------------------|------------------|----------------|----------------

—-|


Eb||-------------------|------------------|----------------|----------------

—-|


eb||-------------------|------------------|----------------|----------------

—-|


Bb||-----10---8--------|10b11r---8---10---|8---------------|----------------

—-|


Gb||10------------10---|------------------|----------------|----------------

—-|


Db||-------------------|------------------|----------------|----------------

—-|


Ab||-------------------|------------------|----------------|----------------

—-|


Eb||-------------------|------------------|----------------|----------------

—-|
||
|


eb||-------------------|------------------|----------------|----------------

—-|


Bb||-------------------|------------------|----------------|----------------

—-|


Gb||7---10---9---7-----|10b12r---9---10---|9---------------|----7--9--9b10r-

—-|


Db||-------------------|------------------|----------------|10--------------

-10-|


Ab||-------------------|------------------|----------------|----------------

—-|


Eb||-------------------|------------------|----------------|----------------

—-|

(Verse1:)

Add some chorus to this guitar:


eb||5----------------------|7----------------------|-----------------------|
1-------------------|
Bb||5----------------------|5----------------------|8----------------------|
1-------------------|
Gb||5----------------------|5----------------------|5----------------------|
2-------------------|
Db||7----------------------|7----------------------|7----------------------|
3-------------------|
Ab||-----------------------|-----------------------|7----------------------|
--------------------|
Eb||-----------------------|-----------------------|-----------------------|
--------------------|

||
|


eb||-----------------------|-----------------------|-----------------------|
--------------------|
Bb||-----------------------|-----------------------|-----------------------|
--------------------|
Gb||-----------------------|-----------------------|-----------------------|
--------------------|
Db||7---7---7p5h7----5h7---|7---7---7p5h7----5h7---|7---7---7p5h7----5h7---|
7-----9-----10~-----|
Ab||-----------------------|-----------------------|-----------------------|
8-----10----12~-----|
Eb||-----------------------|-----------------------|-----------------------|
--------------------|

No brain is left…


eb||5----------------------|7----------------------|-----------------------|
1-------------------|
Bb||5----------------------|5----------------------|8----------------------|
1-------------------|
Gb||5----------------------|5----------------------|5----------------------|
2-------------------|
Db||7----------------------|7----------------------|7----------------------|
3-------------------|
Ab||-----------------------|-----------------------|7----------------------|
--------------------|
Eb||-----------------------|-----------------------|-----------------------|
--------------------|

||
|


eb||-----------------------|-----------------------|-----------------------|
--------------------|
Bb||-----------------------|-----------------------|-----------------------|
--------------------|
Gb||-----------------------|-----------------------|-----------------------|
--------------------|
Db||7---7---7p5h7----5h7---|7---7---7p5h7----5h7---|7---7---7p5h7----5h7---|
3-----3-----3-------|
Ab||-----------------------|-----------------------|-----------------------|
3-----3-----3-------|
Eb||-----------------------|-----------------------|-----------------------|
1-----1-----1-------|

When he created…

(Bridge:)


eb||-----------------------|-----------------------|-----------------------|
--------------------|
Bb||-----------------------|-----------------------|-----------------------|
--------------------|
Gb||-----------------------|-----------------------|-----------------------|
--------------------|
Db||3----------------------|3----------------------|-----------------------|
--------------------|
Ab||1----------------------|1----------------------|3----------------------|
3-------------------|
Eb||-----------------------|-----------------------|1----------------------|
1-------------------|
eb||-----------------------|-----------------------|-----------------------|
--------------------|
Bb||-----------------------|-----------------------|-----------------------|
--------------------|
Gb||-----------------------|-----------------------|-----------------------|
--------------------|
Db||3----------------------|3----------------------|-----------------------|
5-------------------|
Ab||1----------------------|3----------------------|5----------------------|
3-------------------|
Eb||-----------------------|-----------------------|3----------------------|
--------------------|
eb||-----------------------|
Bb||-----------------------|
Gb||-----------------------|
Db||--------5--------------|
Ab||333333333---Fill-------|
Eb||-----------------------|

……..

Fill:


eb||----------|----|
Bb||10-8------|----|
Gb||-----10-9-|10--|
Db||----------|----|
Ab||----------|----|
Eb||----------|----|

|| |


eb||----------|----|
Bb||----------|----|
Gb||10-9-7----|7---|
Db||-------10-|----|
Ab||----------|----|
Eb||----------|----|

(Chorus 1:)


eb||-----------------------|-----------------------|-----------------------|
--------------------|
Bb||-----------------------|-----------------------|-----------------------|
--------------------|
Gb||-----------------------|-----------------------|-----------------------|
--------------------|
Db||7----------------------|-----------------------|5----------------------|
--------------------|
Ab||5----------------------|8----------------------|3----------------------|
7-------------------|
Eb||-----------------------|6----------------------|-----------------------|
5-------------------|

(Chorus 2:)


eb||-----------------------|-----------------------|-----------------------|
--------------------|
Bb||-----------------------|-----------------------|-----------------------|
--------------------|
Gb||-----------------------|-----------------------|-----------------------|
--------------------|
Db||-----------------------|-----------------------|-----------------------|
--------------------|
Ab||-----------------------|-----------------------|-----------------------|
--------------------|
Eb||-----------------------|-----------------------|-----------------------|
--------------------|

There’s plenty of work to do on this one, perhaps someone else will feel
inspired to continue?

To play the most songs, including Falling Down by Edguy by ukulele, the most important basic ukulele chords to learn are C chord, D chord, G chord, and Em chord.
These set you up to play a many of songs, and each of them is easy to learn.