If you are looking for Misery Whip ukulele chords, you have visit to the right place.
You can play versatile instrument Misery Whip using ukulele or guitar.
This song by Everclear can also be played by that instruments.
=

Misery Whip chords has rhythm and included in Songs From an American Movie, Vol. Two: Good Time for a Bad Attitude (2000) album.
You can also get another musical style, including jazz ukulele chords, country music ukulele chords, pop ukulele chords, world music ukulele chords, and rock ukulele chords here.

Misery Whip by Everclear Ukulele Chords

By Everclear
Tabbed By JR

ALL STRINGS TUNED DOWN A HALF STEP

Intro-


Verse 1 (Accousitc)


Eb--------------3-3-3
Bb--------------3-3-3
Gb--------------2-2-2
Db----0-0-------0-0-0
Ab-3-------3b-0------
Eb-------------------

Chorus 1 (Clean Electric)


Eb------2----------1---------2-----3----
Bb--------3----------1---------2-----3--
Gb---2---------2-----------------------0
Db-0---------3------------2-------------
Ab----------------------0---------------
Eb-------------------------------3------
Eb-----2-----------1----0-0-X-X-X-X-0-0-----
Bb--------3----------1--2-2-X-X-X-X-2-2-----
Gb---2---------2--------2-2-X-X-X-X-2-2-----
Db-0---------3----------2-2-X-X-X-X-2-2-----
Ab----------------------0-0-X-X-X-X-0-0-3b-0
Eb-------------------------------------------

Then repeat the first line

Second Verse (Distorted)


Eb-----3-3-3-------------3-3-3
Bb-----3-3-3-------------3-3-3
Gb-----2-2-2-------------2-2-2
Db-----0-0-0----0-0------0-0-0
Ab-3-0--------3-----3b-0------
Eb----------------------------

Second Chrous (Distorted)
There Is A Place
Where We Can Leave Behind
All Those Simple Minds
They Would not like the way we live
When We Are All Alone
In This House That We Call Home
You Will Become My Misery Whip

Interlude


Eb-3-3-3-3---3-3-3-3---3-3-3-3--------------
Bb-3-3-3-3---3-3-3-3---3-3-3-3--------------
Gb-2-2-2-2---2-2-2-2---0-0-0-0--------------
Db-0-0-0-0---0-0-0-0---0-0-0-0----0-0-------
Ab---------0---------0----------3-----3b--0-
Eb------------------------------------------

Interlude Number 2


Eb---------------------------------------------------------
Bb---------------------------------------------------------
Gb---------------------------------------------------------
Db-2-0-----------------0-----------0------------0----------
Ab----3-0-3b-0-----0-3----3---0--3-----------3-------------
Eb-------------------------------------3---3---------1---0-

Then Just Play The Chorus Then The Interlude

To play the this songs, including Misery Whip by Everclear by ukulele, the most crucial basic ukulele chords to learn are C chord, D chord, G chord, and Em chord.
These set you up to play a many of songs, and each of them is easy to learn.

If you are looking for Unemployed Boyfriend ukulele chords, you have come to the best site.
You can play versatile instrument Unemployed Boyfriend using ukulele or guitar.
This song by Everclear can also be played by that instruments.
=

Unemployed Boyfriend chords has rhythm and included in Songs From an American Movie, Vol. One: Learning How to Smile (2000) album.
You can also find another musical style, including jazz ukulele chords, country music ukulele chords, pop ukulele chords, world music ukulele chords, and rock ukulele chords here.

Unemployed Boyfriend by Everclear Ukulele Chords

Songs From An American Movie Volume 1: Learning How To Smile

“Hi, this is Peggy, leave a nice message or I’ll kill ya”
“Hey Peggy it’s me. You are never gonna believe what happened to me today”

!!!!NOTE!!!! – The third chord in the following riff (which is also used throughout
the tab) may well be wrong. There’s about half a million suggestions for it down at
the bottom of the tab, with the most recent at the bottom, including the word from
Art himself, but anyway have a look and decide for yourself


e|--3-3-3-3-3-------7-7-7-7-3--------------------|
B|--3-3-3-3-3-------7-7-7-7-3--------------------|
G|--0-0-0-0-0-------7-7-7-7-0--------------------|
D|--0-0-0-0-2-------9-9-9-9-2--------------------|
A|--2-2-2-2-3-------9-9-9-9-3--------------------|
E|--3-3-3-3---------x-x-x-x----------------------|

“I am sitting at the unemployment office, waiting on my

[G/B] [G/A]


e|--3-3-3-3-3-------7-7-7-7-3-----3-3--3---------|
B|--3-3-3-3-3-------7-7-7-7-3-----3-3--3---------|
G|--0-0-0-0-0-------7-7-7-7-0-----0-0--0---------|
D|--0-0-0-0-2-------9-9-9-9-2-----2-0--0---------|
A|--2-2-2-2-3-------9-9-9-9-3-----3-2--0---------|
E|--3-3-3-3---------x-x-x-x----------------------|

loser of a caseworker in one of those nasty chairs”


e|--3-3-3-3-3-------7-7-7-7-3--------------------| x2
B|--3-3-3-3-3-------7-7-7-7-3--------------------|
G|--0-0-0-0-0-------7-7-7-7-0--------------------|
D|--0-0-0-0-2-------9-9-9-9-2--------------------|
A|--2-2-2-2-3-------9-9-9-9-3--------------------|
E|--3-3-3-3---------x-x-x-x----------------------|

“And out from nowhere this total stranger walked right up to me
Sits down then leans over and says something like, “This is going to sound a
little obsessive””

[G/B] [G/A]


e|--3-3-3-3-3-------7-7-7-7-3-----3-3--3---------| x4
B|--3-3-3-3-3-------7-7-7-7-3-----3-3--3---------|
G|--0-0-0-0-0-------7-7-7-7-0-----0-0--0---------|
D|--0-0-0-0-2-------9-9-9-9-2-----2-0--0---------|
A|--2-2-2-2-3-------9-9-9-9-3-----3-2--0---------|
E|--3-3-3-3---------x-x-x-x----------------------|

This is gonna sound a little obsessive, this is gonna sound a little bit strange
I have one thing to say before I turn and I walk away
This is gonna sound a little impulsive, this is gonna sound a little insane
I know you don’t know me yet, but you and I, we will be together someday


e|-5-5-5-5----------5-5-5-5----------------------| x2
B|-5-5-5-5----------5-5-5-5----------------------|
G|-0-0-0-0----------0-0-0-0----------------------|
D|-0-0-0-0----------0-0-0-0----------------------|
A|-4-4-4-4----------4-4-4-4----------------------|
E|-5-5-5-5----------5-5-5-5----------------------|

Someday, I know
I know that I sound like I’m on drugs, listen to me when I say

[G/B] [G/A]


e|--3-3-3-3-3-------7-7-7-7-3-----3-3--3---------| x4
B|--3-3-3-3-3-------7-7-7-7-3-----3-3--3---------|
G|--0-0-0-0-0-------7-7-7-7-0-----0-0--0---------|
D|--0-0-0-0-2-------9-9-9-9-2-----2-0--0---------|
A|--2-2-2-2-3-------9-9-9-9-3-----3-2--0---------|
E|--3-3-3-3---------x-x-x-x----------------------|

Ever since when I first saw you, sitting on your car outside
You asked for a cigarette, I couldn’t stop staring at your eyes
Ever since when I first saw you, looking bored in that plastic chair
With the lights in the office around you
Those blond streaks they look so pretty in your black hair


e|-5-5-5-5----------5-5-5-5----------------------| x2
B|-5-5-5-5----------5-5-5-5----------------------|
G|-0-0-0-0----------0-0-0-0----------------------|
D|-0-0-0-0----------0-0-0-0----------------------|
A|-4-4-4-4----------4-4-4-4----------------------|
E|-5-5-5-5----------5-5-5-5----------------------|

You look cool and alternative with that disaffected stare
Yeah you want people to think that you just don’t care


e|------------2-2-2--(x3)-|-------------| x2
B|------------3-3-3-------|-------------|
G|--------0---2-2-2-------|-5-5-5-5-7-7-|
D|--5-5---2---0-0-0-------|-5-5-5-5-7-7-|
A|--5-5---2---------------|-3-3-3-3-5-5-|
E|--3-3---0---------------|-------------|

Yeah you can be with me `cause I just might be the one
Who will treat you like you’re perfect Who will always make you come
Yeah you can be with me Yes I will always let you win
I will never be like those other guys
I will never be your unemployed boyfriend


e|--3-3-3-3-3-------7-7-7-7-3--------------------| x2
B|--3-3-3-3-3-------7-7-7-7-3--------------------|
G|--0-0-0-0-0-------7-7-7-7-0--------------------|
D|--0-0-0-0-2-------9-9-9-9-2--------------------|
A|--2-2-2-2-3-------9-9-9-9-3--------------------|
E|--3-3-3-3---------x-x-x-x----------------------|

“Can you believe he said that to me. To me, of all people
I can’t even remember the last time a guy took me out on a date
and actually paid for it”

[G/B] [G/A]


e|--3-3-3-3-3-------7-7-7-7-3-----3-3--3---------|
B|--3-3-3-3-3-------7-7-7-7-3-----3-3--3---------|
G|--0-0-0-0-0-------7-7-7-7-0-----0-0--0---------|
D|--0-0-0-0-2-------9-9-9-9-2-----2-0--0---------|
A|--2-2-2-2-3-------9-9-9-9-3-----3-2--0---------|
E|--3-3-3-3---------x-x-x-x----------------------|

This is gonna sound a little bit out there
This is gonna sound a litle insane


e|--3-3-3-3-3--------3-3-3-3-3-3---------|
B|--3-3-3-3-3--------3-3-3-3-3-3---------|
G|--0-0-0-0-0--------0-0-0-0-0-0---------|
D|--0-0-0-0-2--------0-0-0-0-0-0---------|
A|--2-2-2-2-3--------2-2-2-2-2-2---------|
E|--3-3-3-3----------3-3-3-3-3-3---------|

But I keep having the same dream
You will be the mother of my children someday


e|-5-5-5-5----------5-5-5-5----------------------| x10
B|-5-5-5-5----------5-5-5-5----------------------|
G|-0-0-0-0----------0-0-0-0----------------------|
D|-0-0-0-0----------0-0-0-0----------------------|
A|-4-4-4-4----------4-4-4-4----------------------|
E|-5-5-5-5----------5-5-5-5----------------------|

I heard you sleep with that obnoxious guy
I know he was in that famous band
You look so sad when you are with him
Yes I never see him reach to hold your hand


e|------------2-2-2--(x3)-|-------------| x3
B|------------3-3-3-------|-------------|
G|--------0---2-2-2-------|-5-5-5-5-7-7-|
D|--5-5---2---0-0-0-------|-5-5-5-5-7-7-|
A|--5-5---2---------------|-3-3-3-3-5-5-|
E|--3-3---0---------------|-------------|

Yeah you can be with me, Yes I will treat you like a queen
I will go to all those chick-flick movies that I really don’t want to
see
Yeah you can be with me, No I will never let you down
I will never make out with your girlfriend
When I know you’re not around
Yes you can be with me Yeah I just might be the one
Who will treat you like your special I will always make you come


e|------------2-2-2--(x3)-|-----------------------------|
B|------------3-3-3-------|-----------------------------|
G|--------0---2-2-2-------|-5-5-5-5-5-5-5-5-5-5-5-5-7-7-|
D|--5-5---2---0-0-0-------|-5-5-5-5-5-5-5-5-5-5-5-5-7-7-|
A|--5-5---2---------------|-3-3-3-3-3-3-3-3-3-3-3-3-5-5-|
E|--3-3---0---------------|-----------------------------|

You can be with me Yes I will always let you win
I will never be like those other guys
I will never be like those other guys
I will never be your unemployed boyfriend


e|--3-3-3-3-3-------7-7-7-7-3--------------------| x1
B|--3-3-3-3-3-------7-7-7-7-3--------------------|
G|--0-0-0-0-0-------7-7-7-7-0--------------------|
D|--0-0-0-0-2-------9-9-9-9-2--------------------|
A|--2-2-2-2-3-------9-9-9-9-3--------------------|
E|--3-3-3-3---------x-x-x-x----------------------|

“Can you believe this? I mean can this be for real?”

[G/B] [G/A]


e|--3-3-3-3-3-------7-7-7-7-3-----3-3--3---------| x2
B|--3-3-3-3-3-------7-7-7-7-3-----3-3--3---------|
G|--0-0-0-0-0-------7-7-7-7-0-----0-0--0---------|
D|--0-0-0-0-2-------9-9-9-9-2-----2-0--0---------|
A|--2-2-2-2-3-------9-9-9-9-3-----3-2--0---------|
E|--3-3-3-3---------x-x-x-x----------------------|

“Then he take my hand, writes down his number, and just walks away.
I mean…..wow. But you know, the weird thing is, he actually is kinda cute”


e|--3-3-3-3-3-------7-7-7-7-3--------------------| x1
B|--3-3-3-3-3-------7-7-7-7-3--------------------|
G|--0-0-0-0-0-------7-7-7-7-0--------------------|
D|--0-0-0-0-2-------9-9-9-9-2--------------------|
A|--2-2-2-2-3-------9-9-9-9-3--------------------|
E|--3-3-3-3---------x-x-x-x----------------------|

“in a real intense way….kinda like Perry Farrell, you know intense
but sensitive. Anyway, I told my bitchy sister about it and she just
laughed at me. I told her I was really excited about this, that I have a
really good feeling about this guy…..I told her that this could be the guy”

To play the this songs, including Unemployed Boyfriend by Everclear by ukulele, the most crucial basic ukulele chords to learn are C chord, D chord, G chord, and Em chord.
These set you up to play a ton of songs, and each of them is easy to master.

If you are looking for The New York Times ukulele chords, you already visit to the best site.
You can play versatile instrument The New York Times using ukulele or guitar.
This song by Everclear can also be played by that instruments.
=

The New York Times chords has rhythm and included in Slow Motion Daydream (2003) album.
You can also get another musical genres, including jazz ukulele chords, country music ukulele chords, pop ukulele chords, world music ukulele chords, and rock ukulele chords here.

The New York Times by Everclear Ukulele Chords

Slow Motion Daydream
Lyrics by Art Alexakis
Music By Everclear
Tabbed By JR (soggypeaches@yahoo.com)

ALL STRINGS TUNED DOWN A HALF STEP

(INTRO PLAY 2 TIMES)
GUITAR 1


Eb-0-0-0-0-0-0-0-0-0-0-0-0-0-0-0-0-0-0-0-0-0-0-0-0-0-0-0-0-0-0-0-0
Bb-9-9-9-9-9-9-9-9-7-7-7-7-7-9-7-7-5-5-5-5-5-7-5-5-2-2-2-2-2-0-0-2
Gb----------------------------------------------------------------
Db----------------------------------------------------------------
Ab----------------------------------------------------------------
Eb----------------------------------------------------------------

|


Eb-------------------------------------------------------------------------
Bb-------------------------------------------------------------------------
Gb-9-9-9-9-9-9-9-9---------------------------------------------------------
Db-9-9-9-9-9-9-9-9-9-9-9-9-9-9-9-9-11-11-11-11-11-11-11-11-7-7-7-7-7-7-7-7-
Ab-7-7-7-7-7-7-7-7-9-9-9-9-9-9-9-9-11-11-11-11-11-11-11-11-7-7-7-7-7-7-7-7-
Eb-----------------7-7-7-7-7-7-7-7-9--9--9--9--9--9--9--9--5-5-5-5-5-5-5-5-

Verse 1: (GUITAR 1 ONLY)


Eb-----------------------------------
Bb-----------------------------------
Gb-----------------------------------
Db-----------------------------------
Ab-----------------5-5/11-11-7-7/9-9
Eb-0r--------------7-7/9--9--5-5/7-7

It Makes No Sense To Me
I was living In A Different World When I Heard the News
I Keep on having the same bad dreams
And It Makes me Wanna Hurt All The People Who Have Done This Thing To You

Chorus 1:

GUITAR 1


Eb-0-0-0-0-0-0-0-0-0-0-0-0-0-0-0-0-0-0-0-0-0-0-0-0-0-0-0-0-0-0-0-0
Bb-9-9-9-9-9-9-9-9-7-7-7-7-7-9-7-7-5-5-5-5-5-7-5-5-2-2-2-2-2-0-0-2
Gb----------------------------------------------------------------
Db----------------------------------------------------------------
Ab----------------------------------------------------------------
Eb----------------------------------------------------------------

|


Eb-------------------------------------------------------------------------
Bb-------------------------------------------------------------------------
Gb-9-9-9-9-9-9-9-9---------------------------------------------------------
Db-9-9-9-9-9-9-9-9-9-9-9-9-9-9-9-9-11-11-11-11-11-11-11-11-7-7-7-7-7-7-7-7-
Ab-7-7-7-7-7-7-7-7-9-9-9-9-9-9-9-9-11-11-11-11-11-11-11-11-7-7-7-7-7-7-7-7-
Eb-----------------7-7-7-7-7-7-7-7-9--9--9--9--9--9--9--9--5-5-5-5-5-5-5-5-

When I See Your Face
I Can See You Smile
I read all about in the New York Times
When I See Your Eyes I Can See Your Life
When I think about what happened It just makes me Crazy

Verse 2: (GUITAR 1 ONLY)


Eb-------------------------------------
Bb-------------------------------------
Gb-------------------------------------
Db-------------------------------------
Ab-----------------5-5/11-11-7-7/9-9-2
Eb-0r--------------7-7/9--9--5-5/7-7-0

This makes no sense to me
This eye for an eye thing It has gone too far
I dont know anyone who does not hurt inside
I would Like To Believe we could learn from this
And maybe some day we can make things right.

CHORUS 2:
GUITAR 1


Eb-0-0-0-0-0-0-0-0
Bb-5-5-5-5-5-5-5-5
Gb----------------
Db----------------
Ab----------------
Eb----------------

|


Eb----------------
Bb----------------
Gb----------------
Db-4-4--6-6-6--7-7
Ab-4-4--6-6-6--7-7
Eb-2-2--4-4-4--5-5

I Wanna Believe In This World
I Wanna Believe In This Life
I Wanna Believe In a World That does not seem real when you read between the lines

Chorus 1:

GUITAR 1


Eb-0-0-0-0-0-0-0-0-0-0-0-0-0-0-0-0-0-0-0-0-0-0-0-0-0-0-0-0-0-0-0-0
Bb-9-9-9-9-9-9-9-9-7-7-7-7-7-9-7-7-5-5-5-5-5-7-5-5-2-2-2-2-2-0-0-2
Gb----------------------------------------------------------------
Db----------------------------------------------------------------
Ab----------------------------------------------------------------
Eb----------------------------------------------------------------

|


Eb-------------------------------------------------------------------------
Bb-------------------------------------------------------------------------
Gb-9-9-9-9-9-9-9-9---------------------------------------------------------
Db-9-9-9-9-9-9-9-9-9-9-9-9-9-9-9-9-11-11-11-11-11-11-11-11-7-7-7-7-7-7-7-7-
Ab-7-7-7-7-7-7-7-7-9-9-9-9-9-9-9-9-11-11-11-11-11-11-11-11-7-7-7-7-7-7-7-7-
Eb-----------------7-7-7-7-7-7-7-7-9--9--9--9--9--9--9--9--5-5-5-5-5-5-5-5-

When I See Your Face
I Can See You Smile I
read all about in my New York Times
When I See Your Eyes I Can See Your Life
When I Read the words about you It just makes me Crazy

CHORUS 2:
GUITAR 1


Eb-0-0-0-0-0-0-0-0
Bb-5-5-5-5-5-5-5-5
Gb----------------
Db----------------
Ab----------------
Eb----------------

|


Eb----------------
Bb----------------
Gb----------------
Db-4-4--6-6-6--7-7
Ab-4-4--6-6-6--7-7
Eb-2-2--4-4-4--5-5

I Wanna Believe In This World
I Wanna Believe In This Life
I Wanna Believe In a World That does not seem real when you read between the lines

Middle Part (GUITAR 1 ONLY)


Eb-0--0--0--0--0
Bb-0--0--0--0--0
Gb-1--8--X--6--8
Db-2--9--11-7--9
Ab-2--9--11-7--9
Eb-0--7--9--5--7

Oh Gotta Read Between The Lines
Woah-oh-oh-oh
You Gotta Read Between The Lines
Woah-oh Woah
Yeah I really wanna believe i can make thing right

GUITAR 1


Eb-0-0-0-0-0-0-0-0
Bb-5-5-5-5-5-5-5-5
Gb----------------
Db----------------
Ab----------------
Eb----------------

|


Eb----------------
Bb----------------
Gb----------------
Db-4-4--6-6-6--7-7
Ab-4-4--6-6-6--7-7
Eb-2-2--4-4-4--5-5

pm ……………
I wanna believe I can learn how to feel alright inside

GUITAR 1


Eb-0-0-0-0-0-0-0-0
Bb-5-5-5-5-5-5-5-5
Gb----------------
Db----------------
Ab----------------
Eb----------------

|


Eb----------------
Bb----------------
Gb----------------
Db-4-4--6-6-6--7-7
Ab-4-4--6-6-6--7-7
Eb-2-2--4-4-4--5-5

I wanna Believe I can learn how to make things right
OH

CHORUS 2:
GUITAR 1


Eb-0-0-0-0-0-0-0-0
Bb-5-5-5-5-5-5-5-5
Gb----------------
Db----------------
Ab----------------
Eb----------------

|


Eb----------------
Bb----------------
Gb----------------
Db-4-4--6-6-6--7-7
Ab-4-4--6-6-6--7-7
Eb-2-2--4-4-4--5-5

I Wanna Believe In This World I Wanna Believe In This Life
I Wanna Believe In a World That does not seem real
when you read The New York Times

Chorus 1:
GUITAR 1


Eb-0-0-0-0-0-0-0-0-0-0-0-0-0-0-0-0-0-0-0-0-0-0-0-0-0-0-0-0-0-0-0-0
Bb-9-9-9-9-9-9-9-9-7-7-7-7-7-9-7-7-5-5-5-5-5-7-5-5-2-2-2-2-2-0-0-2
Gb----------------------------------------------------------------
Db----------------------------------------------------------------
Ab----------------------------------------------------------------
Eb----------------------------------------------------------------

|


Eb-------------------------------------------------------------------------
Bb-------------------------------------------------------------------------
Gb-9-9-9-9-9-9-9-9---------------------------------------------------------
Db-9-9-9-9-9-9-9-9-9-9-9-9-9-9-9-9-11-11-11-11-11-11-11-11-7-7-7-7-7-7-7-7-
Ab-7-7-7-7-7-7-7-7-9-9-9-9-9-9-9-9-11-11-11-11-11-11-11-11-7-7-7-7-7-7-7-7-
Eb-----------------7-7-7-7-7-7-7-7-9--9--9--9--9--9--9--9--5-5-5-5-5-5-5-5-

When I See Your Face
I Can See You Smile I read all about in my New York Times
When I See Your Eyes I Can See Your Life
When I Read the words about you
It just makes me Crazy

When I Close My Eyes
You Seem So Alive
When I think about what happened
it makes me wanna believe I can make things right

CHORUS 2:
GUITAR 1


Eb-0-0-0-0-0-0-0-0
Bb-5-5-5-5-5-5-5-5
Gb----------------
Db----------------
Ab----------------
Eb----------------

|


Eb----------------
Bb----------------
Gb----------------
Db-4-4--6-6-6--7-7
Ab-4-4--6-6-6--7-7
Eb-2-2--4-4-4--5-5

I wanna believe
I wanna believe
I wanna believe
OH

GUITAR 1


Eb-0-0-0-0-0-0-0-0
Bb-5-5-5-5-5-5-5-5
Gb----------------
Db----------------
Ab----------------
Eb----------------

|


Eb----------------
Bb----------------
Gb----------------
Db-4-4--6-6-6--7-7
Ab-4-4--6-6-6--7-7
Eb-2-2--4-4-4--5-5

I Wanna Believe In This World
I Wanna Believe In This Life
I Wanna Believe In a World That does not seem real
when you read The New York Times

GUITAR 1
Eb-0~
Bb-5~
[Gb–]
[Db–]
[Ab–]
[Eb–] |
[Eb—]
[Bb—]Gb-9~
Db-9~
Ab-7~
[Eb—]let this ring out

To play the most songs, including The New York Times by Everclear by ukulele, the most important basic ukulele chords to learn are C chord, D chord, G chord, and Em chord.
These set you up to play a a lot of songs, and each of them is easy to master.

If you are looking for The Good Witch of the North ukulele chords, you already visit to the right site.
You can play versatile instrument The Good Witch of the North using ukulele or guitar.
This song by Everclear can also be played by that instruments.
=

The Good Witch of the North chords has rhythm and included in Songs From an American Movie, Vol. Two: Good Time for a Bad Attitude (2000) album.
You can also find other musical style, including jazz ukulele chords, country music ukulele chords, pop ukulele chords, world music ukulele chords, and rock ukulele chords here.

The Good Witch of the North by Everclear Ukulele Chords

(Verse 1)

You pull me down
To the floor of our apartment
A little while later
We are laughing at our carpet burns
I like the way that it glows outside
As the room gets darker
How I wish we could stay like this
While the rest of the world turns

(Verse 2)

There has never been a time
When I didn’t want to be your boyfriend
There has never been a time
When I didn’t want to know your name
Free falling from a work in progress
Free falling from a life on hold
There has never been a time
When I didn’t want you

(Chorus)

My good lover
[C/B]Is my one good thing
These days
You h[G/F#]elp me keep it all from slipping away
I swear I’m g[C/B]onna marry you someday.Someday, someday

(Verse 3)

I am all alone
And it seems like all I do is wait
Yes we spend hours on the phone
But it’s never the same.….no
Nothing good ever does come easy
Nothing good ever comes without a fight
I am all alone
And I wish I was home with you tonight

(Chorus)

My good lover
[C/B]Is my one good thing
These days
You h[G/F#]elp me keep it all from slipping away
I swear I’m g[C/B]onna marry you someday
Yeah, my girlfriend is l[C/B]ike
Magic in my hand
When I lose my sparkle, s[G/F#]he’s the only one that understands
I know I’m g[C/B]onna marry you someday[G/F#]
Yeah I know I’m g[C/B]oing to marry you someday[G/F#]
Yeah, I swear I’m[C/B] going to marry you someday[G/F#]
Yeah, I swear I’m[C/B] going to marry you
Someday
Someday
Someday

To play the most songs, including The Good Witch of the North by Everclear by ukulele, the most important basic ukulele chords to learn are C chord, D chord, G chord, and Em chord.
These set you up to play a a lot of songs, and each of them is easy to master.

If you are looking for Annabella’s Song ukulele chords, you’ve visit to the right site.
You can play versatile instrument Annabella’s Song using ukulele or guitar.
This song by Everclear can also be played by that instruments.
=

Annabella’s Song chords has rhythm and included in Songs From an American Movie, Vol. One: Learning How to Smile (2000) album.
You can also find other musical genres, including jazz ukulele chords, country music ukulele chords, pop ukulele chords, world music ukulele chords, and rock ukulele chords here.

Annabella’s Song by Everclear Ukulele Chords

“Annabella’s Song”
Heroin Girl Single and Song From An American Movie Volume 1:
Learning How To Smile
Music By Art Alexakis and Everclear
Lyrics by Art Alexakis

Intro:


e|-----3------------3------------3------------3--------|
B|o-------3------------3------------3------------3----o|
G|-----------0------------0------------0------------0--|
D|-----------------------------------------------------|
A|o--------------3------------0-----------3-----------o|
E|--3--------------------------------------------------|

See you roll your eyes
You know it makes me smile
Yes you are like the sun to me
All bright as liquid fire
I feel so powerless
Hold you up above the world
Yeah you are quite a lot of trouble
For such a pretty little girl

G C A C (x2)

I know I’m never home
I’m always miles and miles away
Here I’m runnin’ out of time
Say the things I need to say
I call you on the phone
You will not talk to me
Yeah you just don’t understand
You are my everything

Anna, Anna
Tell me what you want
Tell me what you need
Anna,
You are never alone
You are never alone…

Riff played over Bridge and next Chorus:


e|------7--10--7-----7----------|
B|o--8------------8-----10--8--o|
G|------------------------------|
D|------------------------------|
A|o----------------------------o|
E|------------------------------|

Yeah-eah-eah Yeah Yeah-eah-eah Yeah Yeah-eah Yeah Yeah

Anna, Anna
Tell me what you want
Tell me what you need
Anna,
You are never alone
You are never alone…

I like to watch you play
When you don’t know I’m there
I watch you in your sleep at night
Reach out and touch your hair
I wanna make this world
Be just how you want it to be
Yeah you just don’t understand
You are everything to me

(Play interlude riff over the next two choruses)
Anna, Anna
Tell me what you want
Tell me what you need
Anna,
You are never alone

Anna, Anna
Tell me what you want
Tell me what you need
Anna,
You are never alone
Anna,
You are never alone…


e|-----3------------3------------3------------3--------|
B|o-------3------------3------------3------------3----o|
G|-----------0------------0------------0------------0--|
D|-----------------------------------------------------|
A|o--------------3------------0-----------3-----------o|
E|--3--------------------------------------------------|

Anna, You are never alone….. x4

(Strum a G chord to end)

To play the most songs, including Annabella’s Song by Everclear by ukulele, the most important basic ukulele chords to learn are C chord, D chord, G chord, and Em chord.
These set you up to play a many of songs, and each of them is easy to learn.

If you are looking for Heroin Girl ukulele chords, you already visit to the best site.
You can play versatile instrument Heroin Girl using ukulele or guitar.
This song by Everclear can also be played by that instruments.
=

Heroin Girl chords has rhythm and included in Sparkle and Fade (1995) album.
You can also find another musical genres, including jazz ukulele chords, country music ukulele chords, pop ukulele chords, world music ukulele chords, and rock ukulele chords here.

Heroin Girl by Everclear Ukulele Chords


Sparkle and Fade
Lyrics By Art Alexakis
Music by Everclear

Intro

Guitar 1 (with Slight Distortion)


(--------palm mute------------)
e|-----------------------------------------|
B|-----------------------------------------|
G|-----------------------------------------|
D|--12///-5-5-5-5-5-5-5-5-5-5-5-5-5-5-5-5--|
A|--12///-5-5-5-5-5-5-5-5-5-5-5-5-5-5-5-5--|
E|--10///-3-3-3-3-3-3-3-3-3-3-3-3-3-3-3-3--|
D (-------------G---------------)

I used to know a girl___

Guitar 2 (with slight distortion)


(---palm mute---)
e|---------------------------------------|
B|---------------------------------------|
G|----------------10///-4-4-4-4-4-4-4-4--|
D|----------------11///-5-5-5-5-5-5-5-5--|
A|----------------12///------------------|
E|---------------------------------------|

Guitars 1 & 2 (with slight distortion)


e|--2--------0---------------2--------0-----------|
B|-----2--------0-----0 h 2-----2-----------------|
G|-----------------3---------------------4-4-4-3--|
D|--------4------------------------4-----5-5-5-4--|
A|---------------------------------------5-5-5-4--|
E|---------------------------------------3-3-3-2--|

she had two pierced nipples and a b[(-G-)]lack tattoo___


e|--2--------0---------------2--------0-----------|
B|-----2--------0-----0 h 2-----2-----------------|
G|-----------------3---------------------4-4-4-3--|
D|--------4------------------------4-----5-5-5-4--|
A|---------------------------------------5-5-5-4--|
E|---------------------------------------3-3-3-2--|

too___[(-G-)]


e|--2--------0---------------2--------0-----------|
B|-----2--------0-----0 h 2-----2-----------------|
G|-----------------3---------------------4-4-4-3--|
D|--------4------------------------4-----5-5-5-4--|
A|---------------------------------------5-5-5-4--|
E|---------------------------------------3-3-3-2--|

[(-G-)]


e|--2--------0---------------2--------0-----------|
B|-----2--------0-----0 h 2-----2-----------------|
G|-----------------3---------------------4-4-4-3--|
D|--------4------------------------4-----5-5-5-4--|
A|---------------------------------------5-5-5-4--|
E|---------------------------------------3-3-3-2--|

We’d drink that mexican beer___ We’d li[(-G-)]ve on mexican food___


e|--2--------0---------------2--------0--|
B|-----2--------0-----0 h 2-----2--------|
G|-----------------3---------------------|
D|--------4------------------------4-----|
A|---------------------------------------|
E|---------------------------------------|

yeah___ I wish I could

Main Verse

Guitars 1 & 2 (with Heavy Distortion)


e|-------------------------------------|
B|-------------------------------------|
G|------------7-7-----6-6-----7-7------|
D|--5-5-5-5-4-7-7-7-7-6-6-4-4-7-7-7-7--|
A|--5-5-5-5-4-5-5-7-7-4-4-4-4-5-5-7-7--|
E|--3-3-3-3-2-----5-5-----2-2-----5-5--|

go back (back, back, back) yes, back in time


e|-------------------------------|
B|-------------------------------|
G|------7-7-----6-6-----7-7------|
D|--5-4-7-7-7-7-6-6-4-4-7-7-7-7--|
A|--5-4-5-5-7-7-4-4-4-4-5-5-7-7--|
E|--3-2-----5-5-----2-2-----5-5--|


e|-------------------------------|
B|-------------------------------|
G|------7-7-----6-6-----7-7------|
D|--5-4-7-7-7-7-6-6-4-4-7-7-7-7--|
A|--5-4-5-5-7-7-4-4-4-4-5-5-7-7--|
E|--3-2-----5-5-----2-2-----5-5--|

esther used to be the kinda girl that you would never leave___


e|-------------------------------|
B|-------------------------------|
G|------7-7-----6-6-----7-7------|
D|--5-4-7-7-7-7-6-6-4-4-7-7-7-7--|
A|--5-4-5-5-7-7-4-4-4-4-5-5-7-7--|
E|--3-2-----5-5-----2-2-----5-5--|

yeah____


e|-------------------------------|
B|-------------------------------|
G|------7-7-----6-6-----7-7------|
D|--5-4-7-7-7-7-6-6-4-4-7-7-7-7--|
A|--5-4-5-5-7-7-4-4-4-4-5-5-7-7--|
E|--3-2-----5-5-----2-2-----5-5--|

she’d do anything to give me what i need for my disease


e|-------------------------------------|
B|-------------------------------------|
G|------7-7-----6-6-----7-7------------|
D|--5-4-7-7-7-7-6-6-4-4-7-7-7-7-7-7-7--|
A|--5-4-5-5-7-7-4-4-4-4-5-5-7-7-7-7-7--|
E|--3-2-----5-5-----2-2-----5-5-5-5-5--|

she would do anything

Chorus (Guitars 1 & 2)


e|-----------------------------------|
B|-----------------------------------|
G|-----------------------------------|
D|--7-7-7-7-7-7-7-7-9-9-9-9-9-9-9-9--|
A|--7-7-7-7-7-7-7-7-9-9-9-9-9-9-9-9--|
E|--5-5-5-5-5-5-5-5-7-7-7-7-7-7-7-7--|
(------A------) (------B------)

I can hear them talking in the real world

Main Verse (Guitars 1 & 2)


e|-------------------------------|
B|-------------------------------|
G|------7-7-----6-6-----7-7------|
D|--5-4-7-7-7-7-6-6-4-4-7-7-7-7--|
A|--5-4-5-5-7-7-4-4-4-4-5-5-7-7--|
E|--3-2-----5-5-----2-2-----5-5--|

yeah, but they don’t understand

Chorus (Guitars 1 & 2)


e|-----------------------------------|
B|-----------------------------------|
G|-----------------------------------|
D|--7-7-7-7-7-7-7-7-9-9-9-9-9-9-9-9--|
A|--7-7-7-7-7-7-7-7-9-9-9-9-9-9-9-9--|
E|--5-5-5-5-5-5-5-5-7-7-7-7-7-7-7-7--|
(------A------) (------B------)

that I’m happy in hell with my heroin girl

Main Verse (Guitars 1 & 2)


e|-------------------------------|
B|-------------------------------|
G|------7-7-----6-6-----7-7------|
D|--5-4-7-7-7-7-6-6-4-4-7-7-7-7--|
A|--5-4-5-5-7-7-4-4-4-4-5-5-7-7--|
E|--3-2-----5-5-----2-2-----5-5--|

yeah with the heroin girl___


e|-------------------------------|
B|-------------------------------|
G|------7-7-----6-6-----7-7------|
D|--5-4-7-7-7-7-6-6-4-4-7-7-7-7--|
A|--5-4-5-5-7-7-4-4-4-4-5-5-7-7--|
E|--3-2-----5-5-----2-2-----5-5--|


Guitar 1 (Note, stum down once)
e|–12 fb rrrrrrrrrrrrrrrrrrrrrrrrrrrrrrr|


B|---------------------------------------|

G|–9 fb rrrrrrrrrrrrrrrrrrrrrrrrrrrrrrrr|


D|---------------------------------------|
A|---------------------------------------|
E|---------------------------------------|

esther used to be the kinda lover you would never leave, yeah, ahh

Guitar 2


e|-------------------------------|
B|-------------------------------|
G|------7-7-----6-6-----7-7------|
D|--5-4-7-7-7-7-6-6-4-4-7-7-7-7--|
A|--5-4-5-5-7-7-4-4-4-4-5-5-7-7--|
E|--3-2-----5-5-----2-2-----5-5--|


Guitar 1 (Note, strum up once)
e|–12 fb rrrrrrrrrrrrrrrrrrrrrrrrrrrrrrr|


B|---------------------------------------|

G|–9 fb rrrrrrrrrrrrrrrrrrrrrrrrrrrrrrrr|


D|---------------------------------------|
A|---------------------------------------|
E|---------------------------------------|

she’d do anything to give me what I need for my disease

Guitar 2


e|-------------------------------|
B|-------------------------------|
G|------7-7-----6-6-----7-7------|
D|--5-4-7-7-7-7-6-6-4-4-7-7-7-7--|
A|--5-4-5-5-7-7-4-4-4-4-5-5-7-7--|
E|--3-2-----5-5-----2-2-----5-5--|


Guitars 1 & 2


e|------------------------------|
B|------------------------------|
G|------------------------------|
D|---4-4-4-4-4-4-4--------------|
A|---4-4-4-4-4-4-4--------------|
E|---2-2-2-2-2-2-2--------------|
(-----F#----)

she’d do anything

Chorus (Guitars 1 & 2)


e|-----------------------------------|
B|-----------------------------------|
G|-----------------------------------|
D|--7-7-7-7-7-7-7-7-9-9-9-9-9-9-9-9--|
A|--7-7-7-7-7-7-7-7-9-9-9-9-9-9-9-9--|
E|--5-5-5-5-5-5-5-5-7-7-7-7-7-7-7-7--|
(------A------) (------B------)

I can hear them talking in the real world

Main Verse (Guitars 1 & 2)


e|-------------------------------|
B|-------------------------------|
G|------7-7-----6-6-----7-7------|
D|--5-4-7-7-7-7-6-6-4-4-7-7-7-7--|
A|--5-4-5-5-7-7-4-4-4-4-5-5-7-7--|
E|--3-2-----5-5-----2-2-----5-5--|

yeah, but they don’t understand

Chorus (Guitars 1 & 2)


e|-----------------------------------|
B|-----------------------------------|
G|-----------------------------------|
D|--7-7-7-7-7-7-7-7-9-9-9-9-9-9-9-9--|
A|--7-7-7-7-7-7-7-7-9-9-9-9-9-9-9-9--|
E|--5-5-5-5-5-5-5-5-7-7-7-7-7-7-7-7--|
(------A------) (------B------)

that I’m losing my self in a white trash

Guitar 1


e|-----------------------|
B|-----------------------|
G|--9-9-9-9-9-9-9-8 ///--|
D|-----------------------|
A|-----------------------|
E|-----------------------|

hell___________

Guitar 2


e|---------|
B|---------|
G|---------|

D|–4 rrr–|
A|–4 rrr–|
E|–2 rrr–|

Main Verse (Guitars 1 & 2)


e|-------------------------------|
B|-------------------------------|
G|------7-7-----6-6-----7-7------|
D|--5-4-7-7-7-7-6-6-4-4-7-7-7-7--|
A|--5-4-5-5-7-7-4-4-4-4-5-5-7-7--|
E|--3-2-----5-5-----2-2-----5-5--|

lost inside a heroin girl___


e|-------------------------------|
B|-------------------------------|
G|------7-7-----6-6-----7-7------|
D|--5-4-7-7-7-7-6-6-4-4-7-7-7-7--|
A|--5-4-5-5-7-7-4-4-4-4-5-5-7-7--|
E|--3-2-----5-5-----2-2-----5-5--|

yeah with a heroin girl


e|-------------------------------|
B|-------------------------------|
G|------7-7-----6-6-----7-7------|
D|--5-4-7-7-7-7-6-6-4-4-7-7-7-7--|
A|--5-4-5-5-7-7-4-4-4-4-5-5-7-7--|
E|--3-2-----5-5-----2-2-----5-5--|

yeah, yeah, yeah, yeah, yeah,

Interlude (guitars 1 & 2)


e|-------------------------------------|
B|-------------------------------------|
G|-------------------------------------|
D|--5-4-4-2-2-4-4------4-4-2-2-4-4-----|
A|--5-4-4-2-2-4-4------4-4-2-2-4-4-----|
E|--3-2-2-0-0-2-2------2-2-0-0-2-2-----|


e|---------------------------------|
B|---------------------------------|
G|------7-7------------------------|
D|--7-7-7-7-7-7------9-9-8-8-7-7---|
A|--7-7-5-5-7-7------9-9-8-8-7-7---|
E|--5-5-----5-5------7-7-6-6-5-5---|

Go !

Guitar 1


e|--2--------0---------------2--------0--------|
B|-----2--------0-----0 h 2-----2--------0-----|
G|-----------------3------------------------3--|
D|--------4------------------------4-----------|
A|---------------------------------------------|
E|---------------------------------------------|

Guitar 2


e|-------------------------------------|
B|-------------------------------------|
G|-------------------------------------|
D|--5-4-4-2-2-4-4------4-4-2-2-4-4-----|
A|--5-4-4-2-2-4-4------4-4-2-2-4-4-----|
E|--3-2-2-0-0-2-2------2-2-0-0-2-2-----|


Guitar 1


e|--2--------0---------------2--------0--------|
B|-----2--------0-----0 h 2-----2--------0-----|
G|-----------------3------------------------3--|
D|--------4------------------------4-----------|
A|---------------------------------------------|
E|---------------------------------------------|

Guitar 2


e|---------------------------------|
B|---------------------------------|
G|------7-7------------------------|
D|--7-7-7-7-7-7------9-9-8-8-7-7---|
A|--7-7-5-5-7-7------9-9-8-8-7-7---|
E|--5-5-----5-5------7-7-6-6-5-5---|


Guitar 1


e|--2--------0---------------2--------0--------|
B|-----2--------0-----0 h 2-----2--------0-----|
G|-----------------3------------------------3--|
D|--------4------------------------4-----------|
A|---------------------------------------------|
E|---------------------------------------------|

they found her out in the field, about a mile from home___

Guitar 2


e|-------------------------------------|
B|-------------------------------------|
G|-------------------------------------|
D|--5-4-4-2-2-4-4------4-4-2-2-4-4-----|
A|--5-4-4-2-2-4-4------4-4-2-2-4-4-----|
E|--3-2-2-0-0-2-2------2-2-0-0-2-2-----|


Guitar 1


e|--2--------0---------------2--------0--------|
B|-----2--------0-----0 h 2-----2--------0-----|
G|-----------------3------------------------3--|
D|--------4------------------------4-----------|
A|---------------------------------------------|
E|---------------------------------------------|

Guitar 2


e|---------------------------------|
B|---------------------------------|
G|------7-7------------------------|
D|--7-7-7-7-7-7------9-9-8-8-7-7---|
A|--7-7-5-5-7-7------9-9-8-8-7-7---|
E|--5-5-----5-5------7-7-6-6-5-5---|


Guitar 1


e|--2--------0---------------2--------0--------|
B|-----2--------0-----0 h 2-----2--------0-----|
G|-----------------3------------------------3--|
D|--------4------------------------4-----------|
A|---------------------------------------------|
E|---------------------------------------------|

her face was warm from the sun, but her body was cold___

Guitar 2


e|-------------------------------------|
B|-------------------------------------|
G|-------------------------------------|
D|--5-4-4-2-2-4-4------4-4-2-2-4-4-----|
A|--5-4-4-2-2-4-4------4-4-2-2-4-4-----|
E|--3-2-2-0-0-2-2------2-2-0-0-2-2-----|


Guitar 1


e|--2--------0---------------2--------0--------|
B|-----2--------0-----0 h 2-----2--------0-----|
G|-----------------3------------------------3--|
D|--------4------------------------4-----------|
A|---------------------------------------------|
E|---------------------------------------------|

Guitar 2


e|---------------------------------|
B|---------------------------------|
G|------7-7------------------------|
D|--7-7-7-7-7-7------9-9-8-8-7-7---|
A|--7-7-5-5-7-7------9-9-8-8-7-7---|
E|--5-5-----5-5------7-7-6-6-5-5---|


Interlude (guitars 1 & 2)


e|-------------------------------------|
B|-------------------------------------|
G|-------------------------------------|
D|--5-4-4-2-2-4-4------4-4-2-2-4-4-----|
A|--5-4-4-2-2-4-4------4-4-2-2-4-4-----|
E|--3-2-2-0-0-2-2------2-2-0-0-2-2-----|

I heard a police man say “just another


e|------------------------------------|
B|------------------------------------|
G|------7-7---------------------------|
D|--7-7-7-7-7-7------9-9-8-8-7-7-2-2--|
A|--7-7-5-5-7-7------9-9-8-8-7-7-2-2--|
E|--5-5-----5-5------7-7-6-6-5-5-0-0--|

overdose”, just another overdose !

Solo
Guitar 1


e|----------------------------------------------------------
B|--14-14-14-14-14-14-14-1412-12---------14-14-14-14-14/--|
G|--14-14-14-14-14-14-14-1412-1211-11-11-11/14-14-14-14-14/--|
D|----------------------------------------------------------
A|----------------------------------------------------------
E|----------------------------------------------------------

Guitar 2


e|-------------------------------|
B|-------------------------------|
G|------7-7-----6-6-----7-7------|
D|--5-4-7-7-7-7-6-6-4-4-7-7-7-7--|
A|--5-4-5-5-7-7-4-4-4-4-5-5-7-7--|
E|--3-2-----5-5-----2-2-----5-5--|


Guitar 1


e|---------------------------------------------------------|
B|--11-11-119-9-9-9-9-9-9-9-9-9/14-14-14-14-14-14-14-14/--|
G|--11-11-119-9-9-9-9-9-9-9-9-9/14-14-14-14-14-14-14-14/--|
D|---------------------------------------------------------|
A|---------------------------------------------------------|
E|---------------------------------------------------------|

Guitar 2


e|-------------------------------|
B|-------------------------------|
G|------7-7-----6-6-----7-7------|
D|--5-4-7-7-7-7-6-6-4-4-7-7-7-7--|
A|--5-4-5-5-7-7-4-4-4-4-5-5-7-7--|
E|--3-2-----5-5-----2-2-----5-5--|


Guitar 1


e|--------------------------------------14-----------|
B|--17-17b-17-17b-17b-14-13-12-------14----17-17-17--|
G|--16-16b-16-16b-16b-14-13-12-13h15-----------------|
D|---------------------------------------------------|
A|---------------------------------------------------|
E|---------------------------------------------------|

Guitar 2


e|-------------------------------|
B|-------------------------------|
G|------7-7-----6-6-----7-7------|
D|--5-4-7-7-7-7-6-6-4-4-7-7-7-7--|
A|--5-4-5-5-7-7-4-4-4-4-5-5-7-7--|
E|--3-2-----5-5-----2-2-----5-5--|


Guitar 1


e|--14-14-14-14-17-17-17-17-17--|
B|--16-16-16-16-16-16-16-16-16--|
G|------------------------------|
D|------------------------------|
A|------------------------------|
E|------------------------------|

Guitar 2


e|-------------------------------|
B|-------------------------------|
G|------7-7-----6-6-----7-7------|
D|--5-4-7-7-7-7-6-6-4-4-7-7-7-7--|
A|--5-4-5-5-7-7-4-4-4-4-5-5-7-7--|
E|--3-2-----5-5-----2-2-----5-5--|


Outro (Guitars 1 & 2)


e|-------------------------------|
B|-------------------------------|
G|------7-7-----6-6-----7-7------|
D|--5-4-7-7-7-7-6-6-4-4-7-7-7-7--|
A|--5-4-5-5-7-7-4-4-4-4-5-5-7-7--|
E|--3-2-----5-5-----2-2-----5-5--|

Esther used to be the kinda lover you would never leave, yeah, ahh


e|-------------------------------|
B|-------------------------------|
G|------7-7-----6-6-----7-7------|
D|--5-4-7-7-7-7-6-6-4-4-7-7-7-7--|
A|--5-4-5-5-7-7-4-4-4-4-5-5-7-7--|
E|--3-2-----5-5-----2-2-----5-5--|

she’d do anything to give me what I need for my disease


e|-------------------------------------|
B|-------------------------------------|
G|------7-7-----6-6-----7-7------------|
D|--5-4-7-7-7-7-6-6-4-4-7-7-7-7-5-4-4--|
A|--5-4-5-5-7-7-4-4-4-4-5-5-7-7-5-4-4--|
E|--3-2-----5-5-----2-2-----5-5-3-2-2--|

she would do anything

To play the this songs, including Heroin Girl by Everclear by ukulele, the most crucial basic ukulele chords to learn are C chord, D chord, G chord, and Em chord.
These set you up to play a a lot of songs, and each of them is easy to master.

If you are looking for The Boys Are Back in Town ukulele chords, you already visit to the best place.
You can play versatile instrument The Boys Are Back in Town using ukulele or guitar.
This song by Everclear can also be played by that instruments.
=

The Boys Are Back in Town chords has rhythm and included in Other Songs album.
You can also find other musical genres, including jazz ukulele chords, country music ukulele chords, pop ukulele chords, world music ukulele chords, and rock ukulele chords here.

The Boys Are Back in Town by Everclear Ukulele Chords


Band: Everclear
Release Date: August 3, 1999
Tunning: Standard

Intro: G A C (in between G and A, there is this little riff):

D -2–2–0—–0–2———————-
A ————2—————————-
E ——————————————

Verse: Played with slight palm muting

Guess who just got back today?
Those wild-eyed boys that had been away
Haven’t changed, haven’t much to say
But man, I still think those cats are great

They were asking if you were around
How you was, where you could be found
I told them you were living downtown
Driving all the old men crazy

The boys are back in town, the boys are back in town
I said the boys are back in town. The boys are back in town.

There was this chick who used to dance a lot
Every night she’d be on the floor shaking what she got
Man when I tell you she was cool, she was red hot
I mean she was steaming

That night over at Johnny’s place
Well this chick got up and she slapped Johnny’s face
Man we just fell about the place
If that chick don’t want to know, forget her

The boys are back in town, the boys are back in town
I said the boys are back in town. The boys are back in town
The boys are back in town, the boys are back in town
The boys are back in town, the boys are back in town.

Jam: GGGG|GGGG|AAAA|CCCC|

Another guitar is playing this:

E—————————————————————————————————————
B—————————————————————————————————————
G–4b5r4——-4b5r4——-4b5r4——–4b5r4—————4—————5b7r5———-5b7r5
D————5————- 5——————————- 5————————————————
A—————————————————————————————————————
E—————————————————————————————————————

End with: G A

After that little part when Art’s singing “Spread the word around” you play:

B|G|C and end with: G|A|B|C

Friday night they’ll be dressed to kill
Down at Dino’s bar and grill
The drink will flow and blood will spill
If the boys want to fight, you’d better let them

That jukebox in the corner blasting out my favorite song
The nights are getting warmer, it won’t be long
It won’t be long till summer comes
Now that the boys are here again

The boys are back in town, the boys are back in town
I said the boys are back in town. The boys are back in town

After that you play the chorus a few times. Thats it!

This song is using all power chords, its pretty easy, but a GREAT SONG!
Feel free to ask me any questions!

To play the most songs, including The Boys Are Back in Town by Everclear by ukulele, the most important basic ukulele chords to learn are C chord, D chord, G chord, and Em chord.
These set you up to play a a lot of songs, and each of them is easy to learn.

If you are looking for Heroin Girl ukulele chords, you already come to the right site.
You can play versatile instrument Heroin Girl using ukulele or guitar.
This song by Everclear can also be played by that instruments.
=

Heroin Girl chords has rhythm and included in Sparkle and Fade (1995) album.
You can also find another musical style, including jazz ukulele chords, country music ukulele chords, pop ukulele chords, world music ukulele chords, and rock ukulele chords here.

Heroin Girl by Everclear Ukulele Chords


Sparkle and Fade
Lyrics By Art Alexakis
Music by Everclear

Intro

Guitar 1 (with Slight Distortion)


(--------palm mute------------)
e|-----------------------------------------|
B|-----------------------------------------|
G|-----------------------------------------|
D|--12///-5-5-5-5-5-5-5-5-5-5-5-5-5-5-5-5--|
A|--12///-5-5-5-5-5-5-5-5-5-5-5-5-5-5-5-5--|
E|--10///-3-3-3-3-3-3-3-3-3-3-3-3-3-3-3-3--|
D (-------------G---------------)

I used to know a girl___

Guitar 2 (with slight distortion)


(---palm mute---)
e|---------------------------------------|
B|---------------------------------------|
G|----------------10///-4-4-4-4-4-4-4-4--|
D|----------------11///-5-5-5-5-5-5-5-5--|
A|----------------12///------------------|
E|---------------------------------------|

Guitars 1 & 2 (with slight distortion)


e|--2--------0---------------2--------0-----------|
B|-----2--------0-----0 h 2-----2-----------------|
G|-----------------3---------------------4-4-4-3--|
D|--------4------------------------4-----5-5-5-4--|
A|---------------------------------------5-5-5-4--|
E|---------------------------------------3-3-3-2--|

she had two pierced nipples and a b[(-G-)]lack tattoo___


e|--2--------0---------------2--------0-----------|
B|-----2--------0-----0 h 2-----2-----------------|
G|-----------------3---------------------4-4-4-3--|
D|--------4------------------------4-----5-5-5-4--|
A|---------------------------------------5-5-5-4--|
E|---------------------------------------3-3-3-2--|

too___[(-G-)]


e|--2--------0---------------2--------0-----------|
B|-----2--------0-----0 h 2-----2-----------------|
G|-----------------3---------------------4-4-4-3--|
D|--------4------------------------4-----5-5-5-4--|
A|---------------------------------------5-5-5-4--|
E|---------------------------------------3-3-3-2--|

[(-G-)]


e|--2--------0---------------2--------0-----------|
B|-----2--------0-----0 h 2-----2-----------------|
G|-----------------3---------------------4-4-4-3--|
D|--------4------------------------4-----5-5-5-4--|
A|---------------------------------------5-5-5-4--|
E|---------------------------------------3-3-3-2--|

We’d drink that mexican beer___ We’d li[(-G-)]ve on mexican food___


e|--2--------0---------------2--------0--|
B|-----2--------0-----0 h 2-----2--------|
G|-----------------3---------------------|
D|--------4------------------------4-----|
A|---------------------------------------|
E|---------------------------------------|

yeah___ I wish I could

Main Verse

Guitars 1 & 2 (with Heavy Distortion)


e|-------------------------------------|
B|-------------------------------------|
G|------------7-7-----6-6-----7-7------|
D|--5-5-5-5-4-7-7-7-7-6-6-4-4-7-7-7-7--|
A|--5-5-5-5-4-5-5-7-7-4-4-4-4-5-5-7-7--|
E|--3-3-3-3-2-----5-5-----2-2-----5-5--|

go back (back, back, back) yes, back in time


e|-------------------------------|
B|-------------------------------|
G|------7-7-----6-6-----7-7------|
D|--5-4-7-7-7-7-6-6-4-4-7-7-7-7--|
A|--5-4-5-5-7-7-4-4-4-4-5-5-7-7--|
E|--3-2-----5-5-----2-2-----5-5--|


e|-------------------------------|
B|-------------------------------|
G|------7-7-----6-6-----7-7------|
D|--5-4-7-7-7-7-6-6-4-4-7-7-7-7--|
A|--5-4-5-5-7-7-4-4-4-4-5-5-7-7--|
E|--3-2-----5-5-----2-2-----5-5--|

esther used to be the kinda girl that you would never leave___


e|-------------------------------|
B|-------------------------------|
G|------7-7-----6-6-----7-7------|
D|--5-4-7-7-7-7-6-6-4-4-7-7-7-7--|
A|--5-4-5-5-7-7-4-4-4-4-5-5-7-7--|
E|--3-2-----5-5-----2-2-----5-5--|

yeah____


e|-------------------------------|
B|-------------------------------|
G|------7-7-----6-6-----7-7------|
D|--5-4-7-7-7-7-6-6-4-4-7-7-7-7--|
A|--5-4-5-5-7-7-4-4-4-4-5-5-7-7--|
E|--3-2-----5-5-----2-2-----5-5--|

she’d do anything to give me what i need for my disease


e|-------------------------------------|
B|-------------------------------------|
G|------7-7-----6-6-----7-7------------|
D|--5-4-7-7-7-7-6-6-4-4-7-7-7-7-7-7-7--|
A|--5-4-5-5-7-7-4-4-4-4-5-5-7-7-7-7-7--|
E|--3-2-----5-5-----2-2-----5-5-5-5-5--|

she would do anything

Chorus (Guitars 1 & 2)


e|-----------------------------------|
B|-----------------------------------|
G|-----------------------------------|
D|--7-7-7-7-7-7-7-7-9-9-9-9-9-9-9-9--|
A|--7-7-7-7-7-7-7-7-9-9-9-9-9-9-9-9--|
E|--5-5-5-5-5-5-5-5-7-7-7-7-7-7-7-7--|
(------A------) (------B------)

I can hear them talking in the real world

Main Verse (Guitars 1 & 2)


e|-------------------------------|
B|-------------------------------|
G|------7-7-----6-6-----7-7------|
D|--5-4-7-7-7-7-6-6-4-4-7-7-7-7--|
A|--5-4-5-5-7-7-4-4-4-4-5-5-7-7--|
E|--3-2-----5-5-----2-2-----5-5--|

yeah, but they don’t understand

Chorus (Guitars 1 & 2)


e|-----------------------------------|
B|-----------------------------------|
G|-----------------------------------|
D|--7-7-7-7-7-7-7-7-9-9-9-9-9-9-9-9--|
A|--7-7-7-7-7-7-7-7-9-9-9-9-9-9-9-9--|
E|--5-5-5-5-5-5-5-5-7-7-7-7-7-7-7-7--|
(------A------) (------B------)

that I’m happy in hell with my heroin girl

Main Verse (Guitars 1 & 2)


e|-------------------------------|
B|-------------------------------|
G|------7-7-----6-6-----7-7------|
D|--5-4-7-7-7-7-6-6-4-4-7-7-7-7--|
A|--5-4-5-5-7-7-4-4-4-4-5-5-7-7--|
E|--3-2-----5-5-----2-2-----5-5--|

yeah with the heroin girl___


e|-------------------------------|
B|-------------------------------|
G|------7-7-----6-6-----7-7------|
D|--5-4-7-7-7-7-6-6-4-4-7-7-7-7--|
A|--5-4-5-5-7-7-4-4-4-4-5-5-7-7--|
E|--3-2-----5-5-----2-2-----5-5--|


Guitar 1 (Note, stum down once)
e|–12 fb rrrrrrrrrrrrrrrrrrrrrrrrrrrrrrr|


B|---------------------------------------|

G|–9 fb rrrrrrrrrrrrrrrrrrrrrrrrrrrrrrrr|


D|---------------------------------------|
A|---------------------------------------|
E|---------------------------------------|

esther used to be the kinda lover you would never leave, yeah, ahh

Guitar 2


e|-------------------------------|
B|-------------------------------|
G|------7-7-----6-6-----7-7------|
D|--5-4-7-7-7-7-6-6-4-4-7-7-7-7--|
A|--5-4-5-5-7-7-4-4-4-4-5-5-7-7--|
E|--3-2-----5-5-----2-2-----5-5--|


Guitar 1 (Note, strum up once)
e|–12 fb rrrrrrrrrrrrrrrrrrrrrrrrrrrrrrr|


B|---------------------------------------|

G|–9 fb rrrrrrrrrrrrrrrrrrrrrrrrrrrrrrrr|


D|---------------------------------------|
A|---------------------------------------|
E|---------------------------------------|

she’d do anything to give me what I need for my disease

Guitar 2


e|-------------------------------|
B|-------------------------------|
G|------7-7-----6-6-----7-7------|
D|--5-4-7-7-7-7-6-6-4-4-7-7-7-7--|
A|--5-4-5-5-7-7-4-4-4-4-5-5-7-7--|
E|--3-2-----5-5-----2-2-----5-5--|


Guitars 1 & 2


e|------------------------------|
B|------------------------------|
G|------------------------------|
D|---4-4-4-4-4-4-4--------------|
A|---4-4-4-4-4-4-4--------------|
E|---2-2-2-2-2-2-2--------------|
(-----F#----)

she’d do anything

Chorus (Guitars 1 & 2)


e|-----------------------------------|
B|-----------------------------------|
G|-----------------------------------|
D|--7-7-7-7-7-7-7-7-9-9-9-9-9-9-9-9--|
A|--7-7-7-7-7-7-7-7-9-9-9-9-9-9-9-9--|
E|--5-5-5-5-5-5-5-5-7-7-7-7-7-7-7-7--|
(------A------) (------B------)

I can hear them talking in the real world

Main Verse (Guitars 1 & 2)


e|-------------------------------|
B|-------------------------------|
G|------7-7-----6-6-----7-7------|
D|--5-4-7-7-7-7-6-6-4-4-7-7-7-7--|
A|--5-4-5-5-7-7-4-4-4-4-5-5-7-7--|
E|--3-2-----5-5-----2-2-----5-5--|

yeah, but they don’t understand

Chorus (Guitars 1 & 2)


e|-----------------------------------|
B|-----------------------------------|
G|-----------------------------------|
D|--7-7-7-7-7-7-7-7-9-9-9-9-9-9-9-9--|
A|--7-7-7-7-7-7-7-7-9-9-9-9-9-9-9-9--|
E|--5-5-5-5-5-5-5-5-7-7-7-7-7-7-7-7--|
(------A------) (------B------)

that I’m losing my self in a white trash

Guitar 1


e|-----------------------|
B|-----------------------|
G|--9-9-9-9-9-9-9-8 ///--|
D|-----------------------|
A|-----------------------|
E|-----------------------|

hell___________

Guitar 2


e|---------|
B|---------|
G|---------|

D|–4 rrr–|
A|–4 rrr–|
E|–2 rrr–|

Main Verse (Guitars 1 & 2)


e|-------------------------------|
B|-------------------------------|
G|------7-7-----6-6-----7-7------|
D|--5-4-7-7-7-7-6-6-4-4-7-7-7-7--|
A|--5-4-5-5-7-7-4-4-4-4-5-5-7-7--|
E|--3-2-----5-5-----2-2-----5-5--|

lost inside a heroin girl___


e|-------------------------------|
B|-------------------------------|
G|------7-7-----6-6-----7-7------|
D|--5-4-7-7-7-7-6-6-4-4-7-7-7-7--|
A|--5-4-5-5-7-7-4-4-4-4-5-5-7-7--|
E|--3-2-----5-5-----2-2-----5-5--|

yeah with a heroin girl


e|-------------------------------|
B|-------------------------------|
G|------7-7-----6-6-----7-7------|
D|--5-4-7-7-7-7-6-6-4-4-7-7-7-7--|
A|--5-4-5-5-7-7-4-4-4-4-5-5-7-7--|
E|--3-2-----5-5-----2-2-----5-5--|

yeah, yeah, yeah, yeah, yeah,

Interlude (guitars 1 & 2)


e|-------------------------------------|
B|-------------------------------------|
G|-------------------------------------|
D|--5-4-4-2-2-4-4------4-4-2-2-4-4-----|
A|--5-4-4-2-2-4-4------4-4-2-2-4-4-----|
E|--3-2-2-0-0-2-2------2-2-0-0-2-2-----|


e|---------------------------------|
B|---------------------------------|
G|------7-7------------------------|
D|--7-7-7-7-7-7------9-9-8-8-7-7---|
A|--7-7-5-5-7-7------9-9-8-8-7-7---|
E|--5-5-----5-5------7-7-6-6-5-5---|

Go !

Guitar 1


e|--2--------0---------------2--------0--------|
B|-----2--------0-----0 h 2-----2--------0-----|
G|-----------------3------------------------3--|
D|--------4------------------------4-----------|
A|---------------------------------------------|
E|---------------------------------------------|

Guitar 2


e|-------------------------------------|
B|-------------------------------------|
G|-------------------------------------|
D|--5-4-4-2-2-4-4------4-4-2-2-4-4-----|
A|--5-4-4-2-2-4-4------4-4-2-2-4-4-----|
E|--3-2-2-0-0-2-2------2-2-0-0-2-2-----|


Guitar 1


e|--2--------0---------------2--------0--------|
B|-----2--------0-----0 h 2-----2--------0-----|
G|-----------------3------------------------3--|
D|--------4------------------------4-----------|
A|---------------------------------------------|
E|---------------------------------------------|

Guitar 2


e|---------------------------------|
B|---------------------------------|
G|------7-7------------------------|
D|--7-7-7-7-7-7------9-9-8-8-7-7---|
A|--7-7-5-5-7-7------9-9-8-8-7-7---|
E|--5-5-----5-5------7-7-6-6-5-5---|


Guitar 1


e|--2--------0---------------2--------0--------|
B|-----2--------0-----0 h 2-----2--------0-----|
G|-----------------3------------------------3--|
D|--------4------------------------4-----------|
A|---------------------------------------------|
E|---------------------------------------------|

they found her out in the field, about a mile from home___

Guitar 2


e|-------------------------------------|
B|-------------------------------------|
G|-------------------------------------|
D|--5-4-4-2-2-4-4------4-4-2-2-4-4-----|
A|--5-4-4-2-2-4-4------4-4-2-2-4-4-----|
E|--3-2-2-0-0-2-2------2-2-0-0-2-2-----|


Guitar 1


e|--2--------0---------------2--------0--------|
B|-----2--------0-----0 h 2-----2--------0-----|
G|-----------------3------------------------3--|
D|--------4------------------------4-----------|
A|---------------------------------------------|
E|---------------------------------------------|

Guitar 2


e|---------------------------------|
B|---------------------------------|
G|------7-7------------------------|
D|--7-7-7-7-7-7------9-9-8-8-7-7---|
A|--7-7-5-5-7-7------9-9-8-8-7-7---|
E|--5-5-----5-5------7-7-6-6-5-5---|


Guitar 1


e|--2--------0---------------2--------0--------|
B|-----2--------0-----0 h 2-----2--------0-----|
G|-----------------3------------------------3--|
D|--------4------------------------4-----------|
A|---------------------------------------------|
E|---------------------------------------------|

her face was warm from the sun, but her body was cold___

Guitar 2


e|-------------------------------------|
B|-------------------------------------|
G|-------------------------------------|
D|--5-4-4-2-2-4-4------4-4-2-2-4-4-----|
A|--5-4-4-2-2-4-4------4-4-2-2-4-4-----|
E|--3-2-2-0-0-2-2------2-2-0-0-2-2-----|


Guitar 1


e|--2--------0---------------2--------0--------|
B|-----2--------0-----0 h 2-----2--------0-----|
G|-----------------3------------------------3--|
D|--------4------------------------4-----------|
A|---------------------------------------------|
E|---------------------------------------------|

Guitar 2


e|---------------------------------|
B|---------------------------------|
G|------7-7------------------------|
D|--7-7-7-7-7-7------9-9-8-8-7-7---|
A|--7-7-5-5-7-7------9-9-8-8-7-7---|
E|--5-5-----5-5------7-7-6-6-5-5---|


Interlude (guitars 1 & 2)


e|-------------------------------------|
B|-------------------------------------|
G|-------------------------------------|
D|--5-4-4-2-2-4-4------4-4-2-2-4-4-----|
A|--5-4-4-2-2-4-4------4-4-2-2-4-4-----|
E|--3-2-2-0-0-2-2------2-2-0-0-2-2-----|

I heard a police man say “just another


e|------------------------------------|
B|------------------------------------|
G|------7-7---------------------------|
D|--7-7-7-7-7-7------9-9-8-8-7-7-2-2--|
A|--7-7-5-5-7-7------9-9-8-8-7-7-2-2--|
E|--5-5-----5-5------7-7-6-6-5-5-0-0--|

overdose”, just another overdose !

Solo
Guitar 1


e|----------------------------------------------------------
B|--14-14-14-14-14-14-14-1412-12---------14-14-14-14-14/--|
G|--14-14-14-14-14-14-14-1412-1211-11-11-11/14-14-14-14-14/--|
D|----------------------------------------------------------
A|----------------------------------------------------------
E|----------------------------------------------------------

Guitar 2


e|-------------------------------|
B|-------------------------------|
G|------7-7-----6-6-----7-7------|
D|--5-4-7-7-7-7-6-6-4-4-7-7-7-7--|
A|--5-4-5-5-7-7-4-4-4-4-5-5-7-7--|
E|--3-2-----5-5-----2-2-----5-5--|


Guitar 1


e|---------------------------------------------------------|
B|--11-11-119-9-9-9-9-9-9-9-9-9/14-14-14-14-14-14-14-14/--|
G|--11-11-119-9-9-9-9-9-9-9-9-9/14-14-14-14-14-14-14-14/--|
D|---------------------------------------------------------|
A|---------------------------------------------------------|
E|---------------------------------------------------------|

Guitar 2


e|-------------------------------|
B|-------------------------------|
G|------7-7-----6-6-----7-7------|
D|--5-4-7-7-7-7-6-6-4-4-7-7-7-7--|
A|--5-4-5-5-7-7-4-4-4-4-5-5-7-7--|
E|--3-2-----5-5-----2-2-----5-5--|


Guitar 1


e|--------------------------------------14-----------|
B|--17-17b-17-17b-17b-14-13-12-------14----17-17-17--|
G|--16-16b-16-16b-16b-14-13-12-13h15-----------------|
D|---------------------------------------------------|
A|---------------------------------------------------|
E|---------------------------------------------------|

Guitar 2


e|-------------------------------|
B|-------------------------------|
G|------7-7-----6-6-----7-7------|
D|--5-4-7-7-7-7-6-6-4-4-7-7-7-7--|
A|--5-4-5-5-7-7-4-4-4-4-5-5-7-7--|
E|--3-2-----5-5-----2-2-----5-5--|


Guitar 1


e|--14-14-14-14-17-17-17-17-17--|
B|--16-16-16-16-16-16-16-16-16--|
G|------------------------------|
D|------------------------------|
A|------------------------------|
E|------------------------------|

Guitar 2


e|-------------------------------|
B|-------------------------------|
G|------7-7-----6-6-----7-7------|
D|--5-4-7-7-7-7-6-6-4-4-7-7-7-7--|
A|--5-4-5-5-7-7-4-4-4-4-5-5-7-7--|
E|--3-2-----5-5-----2-2-----5-5--|


Outro (Guitars 1 & 2)


e|-------------------------------|
B|-------------------------------|
G|------7-7-----6-6-----7-7------|
D|--5-4-7-7-7-7-6-6-4-4-7-7-7-7--|
A|--5-4-5-5-7-7-4-4-4-4-5-5-7-7--|
E|--3-2-----5-5-----2-2-----5-5--|

Esther used to be the kinda lover you would never leave, yeah, ahh


e|-------------------------------|
B|-------------------------------|
G|------7-7-----6-6-----7-7------|
D|--5-4-7-7-7-7-6-6-4-4-7-7-7-7--|
A|--5-4-5-5-7-7-4-4-4-4-5-5-7-7--|
E|--3-2-----5-5-----2-2-----5-5--|

she’d do anything to give me what I need for my disease


e|-------------------------------------|
B|-------------------------------------|
G|------7-7-----6-6-----7-7------------|
D|--5-4-7-7-7-7-6-6-4-4-7-7-7-7-5-4-4--|
A|--5-4-5-5-7-7-4-4-4-4-5-5-7-7-5-4-4--|
E|--3-2-----5-5-----2-2-----5-5-3-2-2--|

she would do anything

To play the this songs, including Heroin Girl by Everclear by ukulele, the most crucial basic ukulele chords to learn are C chord, D chord, G chord, and Em chord.
These set you up to play a many of songs, and each of them is easy to master.

If you are searching for Your Genius Hands ukulele chords, you have visit to the right place.
You can play versatile instrument Your Genius Hands using ukulele or guitar.
This song by Everclear can also be played by that instruments.
=

Your Genius Hands chords has rhythm and included in World of Noise (1993) album.
You can also find another musical genres, including jazz ukulele chords, country music ukulele chords, pop ukulele chords, world music ukulele chords, and rock ukulele chords here.

Your Genius Hands by Everclear Ukulele Chords

As recorded by Everclear on the album “World Of Noise”
Tabbed by Ashton Bailey (ashton_bailey@hotmail.com) and Jason Pan (balaka@alphalink.com.au)

Key:
pm palm mute
slide up towards the neck
/ slide down towards the body
fb feedback
h hammer
b bend string
r ring (let string ring)
v strum down
^ strum up
~ Hold Note
X Muted String

Intro Feedback, then the riff below 4 times, then it’s the
same riff (or chord) with the lyrics below

Guitar 1 (Distorted)
v v v v v ^ v ^ v ^ v v v v v ^ v ^ v ^


e|-------------------------------------------|
B|-------------------------------------------|
G|--7-7-7-7-7-7-7-7-7-7-7-7-7-7-7-7-7-7-7-7--|
D|--X-X-X-X-X-X-X-X-X-X-X-X-X-X-X-X-X-X-X-X--| Repeat 4 Times then
A|--5-5-5-5-5-5-5-5-5-5-5-5-5-5-5-5-5-5-5-5--| comes the lyrics
E|-------------------------------------------|


Main Verse
v v v v v ^ v ^ v ^ v v v v v ^ v ^ v ^


e|-------------------------------------------| x4
B|-------------------------------------------|
G|--7-7-7-7-7-7-7-7-7-7-7-7-7-7-7-7-7-7-7-7--|
D|--X-X-X-X-X-X-X-X-X-X-X-X-X-X-X-X-X-X-X-X--|
A|--5-5-5-5-5-5-5-5-5-5-5-5-5-5-5-5-5-5-5-5--|
E|-------------------------------------------|

| D5 |


e|---------------------10-9--7--5------------|
B|-------------------------------------------|
G|-------------------------------------------|
D|-------------------------------------------|
A|-------------------------------------------|
E|-------------------------------------------|

I have seen you shake
And I know what it cost you
I have heard your words
I am big on your noise

v v v v v ^ v ^ v ^ v v v v v ^ v ^ v ^


e|------------------------------------------------------------|
b|------------------------------------------------------------|
G|--------7----------7-7-7-7-7-7-7-7-7-7-7-7-7-7-7-7-7-7-7-7--|
D|--9-8-7-7-7-6-5----X-X-X-X-X-X-X-X-X-X-X-X-X-X-X-X-X-X-X-X--|
A|--9-8-7-5-7-6-5----5-5-5-5-5-5-5-5-5-5-5-5-5-5-5-5-5-5-5-5--|
E|--7-6-5---5-4-3---------------------------------------------|

My eyes aren’t big enough

v v v v v ^ v ^ v ^ v v v v v ^ v ^ v ^


e|------------------------------------------------------------|
b|------------------------------------------------------------|
G|--------7----------7-7-7-7-7-7-7-7-7-7-7-7-7-7-7-7-7-7-7-7--|
D|--9-8-7-7-7-6-5----X-X-X-X-X-X-X-X-X-X-X-X-X-X-X-X-X-X-X-X--|
A|--9-8-7-5-7-6-5----5-5-5-5-5-5-5-5-5-5-5-5-5-5-5-5-5-5-5-5--|
E|--7-6-5---5-4-3---------------------------------------------|

| B Bb A D A Ab G D5 |


e|------------------------------------------------------------|
B|------------------------------------------------------------|
G|--------------------------------7--9-9h11-11p9-7------------|
D|------------------------------------------------------------|
A|------------------------------------------------------------|
E|------------------------------------------------------------|

`cause I can’t see your hands

v v v v v ^ v ^ v ^ v v v v v ^ v ^ v ^


e|------------------------------------------------------------|
b|------------------------------------------------------------|
G|--------7----------7-7-7-7-7-7-7-7-7-7-7-7-7-7-7-7-7-7-7-7--|
D|--9-8-7-7-7-6-5----X-X-X-X-X-X-X-X-X-X-X-X-X-X-X-X-X-X-X-X--|
A|--9-8-7-5-7-6-5----5-5-5-5-5-5-5-5-5-5-5-5-5-5-5-5-5-5-5-5--|
E|--7-6-5---5-4-3---------------------------------------------|

| B Bb A D A Ab G D5 |


e|------------------------------------------------------------|
B|------------------------------------------------------------|
G|---------------------------------7--9--11-11-11-11----------|
D|------------------------------------------------------------|
A|------------------------------------------------------------|
E|------------------------------------------------------------|

I can’t see what you hold______________
Bridge


e|-----------------|
b|-----------------|
G|--------7--------|
D|--9-8-7-7-7-6-5--|
A|--9-8-7-5-7-6-5--|
E|--7-6-5---5-4-3--|


Verse
v v v v v ^ v ^ v ^ v v v v v ^ v ^ v ^


e|-------------------------------------------|
B|-------------------------------------------|
G|--7-7-7-7-7-7-7-7-7-7-7-7-7-7-7-7-7-7-7-7--|
D|--X-X-X-X-X-X-X-X-X-X-X-X-X-X-X-X-X-X-X-X--| Repeat 4 Times
A|--5-5-5-5-5-5-5-5-5-5-5-5-5-5-5-5-5-5-5-5--|
E|-------------------------------------------|


Main Verse
v v v v v ^ v ^ v ^ v v v v v ^ v ^ v ^


e|-------------------------------------------| x4
B|-------------------------------------------|
G|--7-7-7-7-7-7-7-7-7-7-7-7-7-7-7-7-7-7-7-7--|
D|--X-X-X-X-X-X-X-X-X-X-X-X-X-X-X-X-X-X-X-X--|
A|--5-5-5-5-5-5-5-5-5-5-5-5-5-5-5-5-5-5-5-5--|
E|-------------------------------------------|

| D5 |


e|---------------10-10-9--7--5---------------|
B|-------------------------------------------|
G|-------------------------------------------|
D|-------------------------------------------|
A|-------------------------------------------|
E|-------------------------------------------|

I am growin’ now
As I watch you fade
Now I know what you know
And I’ll break the chains that you have made

v v v v v ^ v ^ v ^ v v v v v ^ v ^ v ^


e|------------------------------------------------------------|
b|------------------------------------------------------------|
G|--------7----------7-7-7-7-7-7-7-7-7-7-7-7-7-7-7-7-7-7-7-7--|
D|--9-8-7-7-7-6-5----X-X-X-X-X-X-X-X-X-X-X-X-X-X-X-X-X-X-X-X--|
A|--9-8-7-5-7-6-5----5-5-5-5-5-5-5-5-5-5-5-5-5-5-5-5-5-5-5-5--|
E|--7-6-5---5-4-3---------------------------------------------|

| B Bb A D A Ab G D5 |


e|------------------------------------------------------------|
B|------------------------------------------------------------|
G|---------------------------------7--9--11-11-11-11----------|
D|------------------------------------------------------------|
A|------------------------------------------------------------|
E|------------------------------------------------------------|

This chain you’ve made for me

v v v v v ^ v ^ v ^ v v v v v ^ v ^ v ^


e|------------------------------------------------------------|
b|------------------------------------------------------------|
G|--------7----------7-7-7-7-7-7-7-7-7-7-7-7-7-7-7-7-7-7-7-7--|
D|--9-8-7-7-7-6-5----X-X-X-X-X-X-X-X-X-X-X-X-X-X-X-X-X-X-X-X--|
A|--9-8-7-5-7-6-5----5-5-5-5-5-5-5-5-5-5-5-5-5-5-5-5-5-5-5-5--|
E|--7-6-5---5-4-3---------------------------------------------|

| B Bb A D A Ab G D5 |


e|------------------------------------------------------------|
B|------------------------------------------------------------|
G|--------------------------------7--9-9h11-11p9-7------------|
D|------------------------------------------------------------|
A|------------------------------------------------------------|
E|------------------------------------------------------------|

Yeah, I will pull you down

v v v v v ^ v ^ v ^ v v v v v ^ v ^ v ^


e|------------------------------------------------------------|
b|------------------------------------------------------------|
G|--------7----------7-7-7-7-7-7-7-7-7-7-7-7-7-7-7-7-7-7-7-7--|
D|--9-8-7-7-7-6-5----X-X-X-X-X-X-X-X-X-X-X-X-X-X-X-X-X-X-X-X--|
A|--9-8-7-5-7-6-5----5-5-5-5-5-5-5-5-5-5-5-5-5-5-5-5-5-5-5-5--|
E|--7-6-5---5-4-3---------------------------------------------|

| B Bb A D A Ab G D5 |


e|------------------------------------------------------------|
B|------------------------------------------------------------|
G|---------------------------------7--9--11-11-11-11----------|
D|------------------------------------------------------------|
A|------------------------------------------------------------|
E|------------------------------------------------------------|

I know I’ll fail in style


e|-----------------|
b|-----------------|
G|--------7--------|
D|--9-8-7-7-7-6-5--|
A|--9-8-7-5-7-6-5--|
E|--7-6-5---5-4-3--|


Chorus


e|-----------------------------------|
B|-----------------------------------|
G|-----------------------------------|
D|--4-4-4-4-4-4-4-4-5-5-5-5-5-5-5-5--|
A|--4-4-4-4-4-4-4-4-5-5-5-5-5-5-5-5--|
E|--2-2-2-2-2-2-2-2-3-3-3-3-3-3-3-3--|

I long to touch your genius hands

v v v v v ^ v ^ v ^ v v v v v ^ v ^ v ^


e|-------------------------------------------|
B|-------------------------------------------|
G|--7-7-7-7-7-7-7-7-7-7-7-7-7-7-7-7-7-7-7-7--| Repeat 6 Times
D|--X-X-X-X-X-X-X-X-X-X-X-X-X-X-X-X-X-X-X-X--|
A|--5-5-5-5-5-5-5-5-5-5-5-5-5-5-5-5-5-5-5-5--|
E|-------------------------------------------|


Main Verse (Round 2)
v v v v v ^ v ^ v ^ v v v v v ^ v ^ v ^


e|-------------------------------------------| x3
B|-------------------------------------------|
G|--7-7-7-7-7-7-7-7-7-7-7-7-7-7-7-7-7-7-7-7--|
D|--X-X-X-X-X-X-X-X-X-X-X-X-X-X-X-X-X-X-X-X--|
A|--5-5-5-5-5-5-5-5-5-5-5-5-5-5-5-5-5-5-5-5--|
E|-------------------------------------------|

| D5 |


e|------------------10-9--7--5---------------|
B|-------------------------------------------|
G|-------------------------------------------|
D|-------------------------------------------|
A|-------------------------------------------|
E|-------------------------------------------|

I am growin’ now
As I watch you fade
Now I know what you know

v v v v v ^ v ^ v ^ v v v v v ^ v ^ v ^


e|-------------------------------------------|
B|-------------------------------------------|
G|--7-7-7-7-7-7-7-7-7-7-7-7-7-7-7-7-7-7-7-7--|
D|--X-X-X-X-X-X-X-X-X-X-X-X-X-X-X-X-X-X-X-X--|
A|--5-5-5-5-5-5-5-5-5-5-5-5-5-5-5-5-5-5-5-5--|
E|-------------------------------------------|

| D5 |


e|---------------10-10h12p10-----------------|
B|-------------------------------------------|
G|-------------------------------------------|
D|-------------------------------------------|
A|-------------------------------------------|
E|-------------------------------------------|

And I’ll break the chains that you have made

v v v v v ^ v ^ v ^ v v v v v ^ v ^ v ^


e|------------------------------------------------------------|
b|------------------------------------------------------------|
G|--------7----------7-7-7-7-7-7-7-7-7-7-7-7-7-7-7-7-7-7-7-7--|
D|--9-8-7-7-7-6-5----X-X-X-X-X-X-X-X-X-X-X-X-X-X-X-X-X-X-X-X--|
A|--9-8-7-5-7-6-5----5-5-5-5-5-5-5-5-5-5-5-5-5-5-5-5-5-5-5-5--|
E|--7-6-5---5-4-3---------------------------------------------|

| B Bb A D A Ab G D5 |


e|------------------------------------------------------------|
B|------------------------------------------------------------|
G|---------------------------------7--9--11-11-11-11----------|
D|------------------------------------------------------------|
A|------------------------------------------------------------|
E|------------------------------------------------------------|

This chain you’ve made for me

v v v v v ^ v ^ v ^ v v v v v ^ v ^ v ^


e|------------------------------------------------------------|
b|------------------------------------------------------------|
G|--------7----------7-7-7-7-7-7-7-7-7-7-7-7-7-7-7-7-7-7-7-7--|
D|--9-8-7-7-7-6-5----X-X-X-X-X-X-X-X-X-X-X-X-X-X-X-X-X-X-X-X--|
A|--9-8-7-5-7-6-5----5-5-5-5-5-5-5-5-5-5-5-5-5-5-5-5-5-5-5-5--|
E|--7-6-5---5-4-3---------------------------------------------|

| B Bb A D A Ab G D5 |


e|------------------------------------------------------------|
B|------------------------------------------------------------|
G|--------------------------------7--9-9h11-11p9-7------------|
D|------------------------------------------------------------|
A|------------------------------------------------------------|
E|------------------------------------------------------------|

Yeah, I will pull you down

v v v v v ^ v ^ v ^ v v v v v ^ v ^ v ^


e|------------------------------------------------------------|
b|------------------------------------------------------------|
G|--------7----------7-7-7-7-7-7-7-7-7-7-7-7-7-7-7-7-7-7-7-7--|
D|--9-8-7-7-7-6-5----X-X-X-X-X-X-X-X-X-X-X-X-X-X-X-X-X-X-X-X--|
A|--9-8-7-5-7-6-5----5-5-5-5-5-5-5-5-5-5-5-5-5-5-5-5-5-5-5-5--|
E|--7-6-5---5-4-3---------------------------------------------|

| B Bb A D A Ab G D5 |


e|------------------------------------------------------------|
B|------------------------------------------------------------|
G|---------------------------------7--9--11-11-11-11----------|
D|------------------------------------------------------------|
A|------------------------------------------------------------|
E|------------------------------------------------------------|

I know I’ll fail in style

Bridge


e|-----------------|
b|-----------------|
G|--------7--------|
D|--9-8-7-7-7-6-5--|
A|--9-8-7-5-7-6-5--|
E|--7-6-5---5-4-3--|


Chorus


e|-----------------------------------|
B|-----------------------------------|
G|-----------------------------------|
D|--4-4-4-4-4-4-4-4-5-5-5-5-5-5-5-5--|
A|--4-4-4-4-4-4-4-4-5-5-5-5-5-5-5-5--|
E|--2-2-2-2-2-2-2-2-3-3-3-3-3-3-3-3--|

I will, I swear


e|-----------------------------------|
B|-----------------------------------|
G|-----------------------------------|
D|--4-4-4-4-4-4-4-4-5-5-5-5-5-5-5-5--|
A|--4-4-4-4-4-4-4-4-5-5-5-5-5-5-5-5--|
E|--2-2-2-2-2-2-2-2-3-3-3-3-3-3-3-3--|

Whoa ee oh ee oh


e|-------------------------------------|
B|-------------------------------------|
G|------------------------------14-14--|
D|--4-4-4-4-4-4-4-4-5-5-5-5-5-5-14-14--|
A|--4-4-4-4-4-4-4-4-5-5-5-5-5-5-12-12--|
E|--2-2-2-2-2-2-2-2-3-3-3-3-3-3--------|

I’m gonna shake your genius hands

Verse

v v v v v ^ v ^ v ^ v v v v v ^ v ^ v ^


e|-------------------------------------------|
B|-------------------------------------------|
G|--7-7-7-7-7-7-7-7-7-7-7-7-7-7-7-7-7-7-7-7--|
D|--X-X-X-X-X-X-X-X-X-X-X-X-X-X-X-X-X-X-X-X--|
A|--5-5-5-5-5-5-5-5-5-5-5-5-5-5-5-5-5-5-5-5--|
E|-------------------------------------------|

hands________________________

v v v v v ^ v ^ v ^ v v v v v ^ v ^ v ^


e|-------------------------------------------|
B|-------------------------------------------|
G|--7-7-7-7-7-7-7-7-7-7-7-7-7-7-7-7-7-7-7-7--|
D|--X-X-X-X-X-X-X-X-X-X-X-X-X-X-X-X-X-X-X-X--|
A|--5-5-5-5-5-5-5-5-5-5-5-5-5-5-5-5-5-5-5-5--|
E|-------------------------------------------|

Your genius hands

v v v v v ^ v ^ v ^ v v v v v ^ v ^ v ^


e|-------------------------------------------|
B|-------------------------------------------|
G|--7-7-7-7-7-7-7-7-7-7-7-7-7-7-7-7-7-7-7-7--|
D|--X-X-X-X-X-X-X-X-X-X-X-X-X-X-X-X-X-X-X-X--|
A|--5-5-5-5-5-5-5-5-5-5-5-5-5-5-5-5-5-5-5-5--|
E|-------------------------------------------|

Hey !, Hey !, Hey !, Hey !

v v v v v ^ v ^ v ^ v v v v v ^ v ^ v ^


e|-------------------------------------------|
B|-------------------------------------------|
G|--7-7-7-7-7-7-7-7-7-7-7-7-7-7-7-7-7-7-7-7--|
D|--X-X-X-X-X-X-X-X-X-X-X-X-X-X-X-X-X-X-X-X--|
A|--5-5-5-5-5-5-5-5-5-5-5-5-5-5-5-5-5-5-5-5--|
E|-------------------------------------------|

| D5 |


e|------------10-10-10-x---10-9--------------|
B|------------------------------10-----------|
G|-------------------------------------------|
D|-------------------------------------------|
A|-------------------------------------------|
E|-------------------------------------------|

v v v v v ^ v ^ v ^ v v v v v ^ v ^ v ^


e|-------------------------------------------|
B|-------------------------------------------|
G|--7-7-7-7-7-7-7-7-7-7-7-7-7-7-7-7-7-7-7-7--|
D|--X-X-X-X-X-X-X-X-X-X-X-X-X-X-X-X-X-X-X-X--|
A|--5-5-5-5-5-5-5-5-5-5-5-5-5-5-5-5-5-5-5-5--|
E|-------------------------------------------|

Your Genius Hands

v v v v v ^ v ^ v ^ v v v v v ^ v ^ v ^


e|-------------------------------------------|
B|-------------------------------------------|
G|--7-7-7-7-7-7-7-7-7-7-7-7-7-7-7-7-7-7-7-7--|
D|--X-X-X-X-X-X-X-X-X-X-X-X-X-X-X-X-X-X-X-X--|
A|--5-5-5-5-5-5-5-5-5-5-5-5-5-5-5-5-5-5-5-5--|
E|-------------------------------------------|

Get it up, Get it up baby !

Outro
v v v ^ v v ^ v v


e|----------------------------------------------------|
B|----------------------------------------------------|
G|--------7---------7--7--7/9--9--9--9/11-11-11-11----|
D|--9-8-7-7-7-6-5---x--x--x-x--x--x--x-x--x--x--x-----|
A|--9-8-7-5-7-6-5---5--5--5/7--7--7--7/9--9--9--9-----|
E|--7-6-5---5-4-3-------------------------------------|

| B Bb A D A Ab G |


e|----------------------------------------------------|
B|----------------------------------------------------|
G|------------------7--7--7/9--9--9--9/11-11-11-11----|
D|----------------------------------------------------|
A|----------------------------------------------------|
E|----------------------------------------------------|

v v v ^ v v v


e|----------------------------------------------------|
B|----------------------------------------------------|
G|--------7---------7--7--7/9--9--9--9/11-119--7-----|
D|--9-8-7-7-7-6-5---x--x--x-x--x--x--x-x--x--x--x-----|
A|--9-8-7-5-7-6-5---5--5--5/7--7--7--7/9--9-7--5-----|
E|--7-6-5---5-4-3-------------------------------------|

| B Bb A D A Ab G |


e|----------------------------------------------------|
B|----------------------------------------------------|
G|--------7---------7--7--7/9--9--9---9/11-119-7-----|
D|--9-8-7-7-7-6-5-------------------------------------|
A|--9-8-7-5-7-6-5-------------------------------------|
E|--7-6-5---5-4-3-------------------------------------|


v v v ^ v v ^ v v


e|----------------------------------------------------|
B|----------------------------------------------------|
G|--------7---------7--7---7/9--9--9---9/11-11-11-11--|
D|--9-8-7-7-7-6-5---x--x---x-x--x--x---x-x--x--x--x---|
A|--9-8-7-5-7-6-5---5--5---5/7--7--7---7/9--9--9--9---|
E|--7-6-5---5-4-3-------------------------------------|

| B Bb A D A Ab G |


e|----------------------------------------------------|
B|----------------------------------------------------|
G|------------------14-14-14/12-12-12-12/11-11-11-11--|
D|----------------------------------------------------|
A|----------------------------------------------------|
E|----------------------------------------------------|
e|------------------------------------------------------------|
B|------------------------------------------------------------|
G|---------------------------------7~~------------------------|
D|--9-8-7-x-9-8-7-x-9-8-7-x-7-6-5--7~~------------------------|
A|--9-8-7-x-9-8-7-x-9-8-7-x-7-6-5--5~~------------------------|
E|--7-6-5-x-7-6-5-x-7-6-5-x-5-4-3-----------------------------|

| |


e|------------------------------------------------------------|
B|------------------------------------------------------------|
G|--11b-(let ring)-----------9------7-------7-7-----7-5-4---2-|
D|------------------------------------------------------------|
A|------------------------------------------------------------|
E|------------------------------------------------------------|

JASON’S EVERCLEAR TABS – http://members.tripod.com/~panec/

To play the most songs, including Your Genius Hands by Everclear by ukulele, the most crucial basic ukulele chords to learn are C chord, D chord, G chord, and Em chord.
These set you up to play a ton of songs, and each of them is easy to learn.

If you are looking for Invisible ukulele chords, you have visit to the right place.
You can play versatile instrument Invisible using ukulele or guitar.
This song by Everclear can also be played by that instruments.
=

Invisible chords has rhythm and included in World of Noise (1993) album.
You can also find another musical style, including jazz ukulele chords, country music ukulele chords, pop ukulele chords, world music ukulele chords, and rock ukulele chords here.

Invisible by Everclear Ukulele Chords


As recorded by Everclear on “World of Noise” LP
Tabbed by Jason Pan (balaka@alphalink.com.au)

BASS


G|-----------------------------------------------|
D|-2h4-4-4p2-2-2h4-4-4p2-2-2h4-4-4p2-2h4-4-4p2---|
A|-----------------------------------------------|
E|-----------------------------------------------|

|GUITAR |


e|-----------------------------------------------|
B|-----------------------------------------------|
G|-----------------------9-9-9-9-9-9-9-9-9-9-9-9-|
D|-------------------------(tremelo pick this----|
A|--------------------------------note)----------|
E|-----------------------------------------------|


e|------------------------5----------|
B|------------------------5----------|
G|------------------------6----------|
D|--/7-7-7---/7-8-9--/7-7-7---/7-8-9-|
A|--/7-7-7---/7-8-9--/7-7-7---/7-8-9-|
E|-2/5-5-5-2/5-6-72/5-5-5-2/5-6-7-|


e|------------------------------------|
B|------------------------------------|
G|------------------------------------|
D|--/7-7-7---/7-8-9--/7-7-7---/7-8-9--|
A|--/7-7-7---/7-8-9--/7-7-7---/7-8-9--|
E|-2/5-5-5-2/5-6-72/5-5-5-2/5-6-7--|

| |


e|------------------------------------|
B|---------------------------12-12-12-|
G|------------------------------------|
D|------------------------------------|
A|------------------------------------|
E|------------------------------------|


e|-------------------------------------|
B|-------------------------------------|
G|-------------------------------------|
D|--/7-7-7---/7-8-9--/7-7-7---/7-8-9---|
A|--/7-7-7---/7-8-9--/7-7-7---/7-8-9---|
E|-2/5-5-5-2/5-6-72/5-5-5-2/5-6-7---|

| |


e|-------------------------------------|
B|12-12-12-11-11-11-----------------12-|
G|-------------------9-9-9h11-11-11----|
D|-------------------------------------|
A|-------------------------------------|
E|-------------------------------------|


e|-------------------------------------|
B|-------------------------------------|
G|-------------------------------------|
D|--/7-7-7---/7-8-9--/7-7-7---/7-8-9---|
A|--/7-7-7---/7-8-9--/7-7-7---/7-8-9---|
E|-2/5-5-5-2/5-6-72/5-5-5-2/5-6-7---|

| |


e|-------------------------------------|
B|-12-12h14p11-11-11-------------------|
G|-------------------9-11-9-8-9-8--6~--|
D|-------------------------------------|
A|-------------------------------------|
E|-------------------------------------|


e|-------------------------------------| x4
B|-------------------------------------|
G|-------------------------------------|
D|--/7-7-7---/7-8-9--/7-7-7---/7-8-9---|
A|--/7-7-7---/7-8-9--/7-7-7---/7-8-9---|
E|-2/5-5-5-2/5-6-72/5-5-5-2/5-6-7---|

I will live. I will live.
Maybe for a year or two. Maybe for a year.
I will die. Yes I will die.
I can rest secure in that.


e|-0---------------5-------0------------------------------------------|x2
B|-0---------------7-------0------------------------------------------|
G|-1---------------7-------1------------------------------------------|
D|-2---------------7-------2---------/7-7-7---/7-8-9--/7-7-7---/7-8-9-|
A|-2---------------5-------2---------/7-7-7---/7-8-9--/7-7-7---/7-8-9-|
E|-0-----------------------0--------2/5-5-5-2/5-6-72/5-5-5-2/5-6-7-|

Yeah, I am awful sure that this thing ain’t no accident.
I just can’t believe that AIDS is just some act of God.


e|-------------------------------------| x2
B|-------------------------------------|
G|-------------------------------------|
D|--/7-7-7---/7-8-9--/7-7-7---/7-8-9---|
A|--/7-7-7---/7-8-9--/7-7-7---/7-8-9---|
E|-2/5-5-5-2/5-6-72/5-5-5-2/5-6-7---|

pm……… ……..
I will reach for you. I will reach my hand.
No one will reach for me. No one will touch my skin.


e|-------------------------------------| x1
B|-------------------------------------|
G|-------------------------------------|
D|--/7-7-7---/7-8-9--/7-7-7---/7-8-9---|
A|--/7-7-7---/7-8-9--/7-7-7---/7-8-9---|
E|-2/5-5-5-2/5-6-72/5-5-5-2/5-6-7---|

pm………
I will accept. I will accept my pain.


e|-------------------------------------| x1
B|-------------------------------------|
G|-------------------------------------|
D|--/7-7-7---/7-8-9--/7-7-7---/7-8-9---|
A|--/7-7-7---/7-8-9--/7-7-7---/7-8-9---|
E|-2/5-5-5-2/5-6-72/5-5-5-2/5-6-7---|

I don’t deserve to die like this. No one deserves to die like this.


e|-0---------------5-------0------------------------------------------|x2
B|-0---------------7-------0------------------------------------------|
G|-1---------------7-------1------------------------------------------|
D|-2---------------7-------2---------/7-7-7---/7-8-9--/7-7-7---/7-8-9-|
A|-2---------------5-------2---------/7-7-7---/7-8-9--/7-7-7---/7-8-9-|
E|-0-----------------------0--------2/5-5-5-2/5-6-72/5-5-5-2/5-6-7-|

Sometimes I get so mad that I just want to break the world.
Sometimes I get so mad that I just want to break the world.
Break the world


e|---------------------------------------------------------------------|
B|---------------------------------------------------------------------|
G|---------------------------------------------------------------------|
D|--/7-7-7---/7-8-9--/7-7-7---/7-8-9--/7-7-7---/7-8-9--/7-7-7---/7-8-9-|
A|--/7-7-7---/7-8-9--/7-7-7---/7-8-9--/7-7-7---/7-8-9--/7-7-7---/7-8-9-|
E|-2/5-5-5-2/5-6-72/5-5-5-2/5-6-7-2/5-5-5-2/5-6-72/5-5-5-2/5-6-7-|

| |


e|---------------------------------------------------------------------|
B|---------------------------------------------------------------------|
G|-9-9-9-9-9-9-9-9-9-8-8-8-8-8-8-8-8-10-10-10-10-10-10-9-9-9-9-9-9-9-9-|
D|---------------------------------------------------------------------|
A|---------------------------------------------------------------------|
E|---------------------------------------------------------------------|


e|---------------------------------------------------------------------|
B|---------------------------------------------------------------------|
G|---------------------------------------------------------------------|
D|--/7-7-7---/7-8-9--/7-7-7---/7-8-9--/7-7-7---/7-8-9--/7-7-7---/7-8-9-|
A|--/7-7-7---/7-8-9--/7-7-7---/7-8-9--/7-7-7---/7-8-9--/7-7-7---/7-8-9-|
E|-2/5-5-5-2/5-6-72/5-5-5-2/5-6-7-2/5-5-5-2/5-6-72/5-5-5-2/5-6-7-|

| |


e|----------------------------------13-14-14-14-14--------20-19----19--|
B|-11-14-11-14-11-14-15-14-11-14-15-----------------------------19-----|
G|---------------------------------------------------------------------|
D|---------------------------------------------------------------------|
A|---------------------------------------------------------------------|
E|---------------------------------------------------------------------|



e|----------------------------------2-------------0---------------2----|
B|----------------------------------4-------------2---------------2----|
G|----------------------------------4-------------2---------------3----|
D|----------------------------------4-------------2---------------4----|
A|----------------------------------2-------------0---------------4----|
E|----------------------------------------------------------------2----|

| |


e|-----------19----19----19b-------------------------------------------|
B|--------19----19----19-----------------------------------------------|
G|----------------------------------5--5b-5p4-2-----------2-4b5r4------|
D|----------------------------------------------4-2---2h4--------------|
A|---------------------------------------------------------------------|
E|---------------------------------------------------------------------|

BASS


G|-------------------------------------| x4
D|-------------------------------------|
A|-------------------------------------|
E|-2/5-5-5-2/5-6-72/5-5-5-2/5-6-7---|

(no lyrics first two times)
I will not be denied. I will not be ignored.
No I am not invisible anymore


e|-------------------------------------| x2
B|-------------------------------------|
G|-------------------------------------|
D|--/7-7-7---/7-8-9--/7-7-7---/7-8-9---|
A|--/7-7-7---/7-8-9--/7-7-7---/7-8-9---|
E|-2/5-5-5-2/5-6-72/5-5-5-2/5-6-7---|

pm……… ……..
I will not be denied. I will not be ignored.
I’m real. I won’t go away. I’m not invisible anymore.


e|-0---------------5-------0------------------------------------------|x2
B|-0---------------7-------0------------------------------------------|
G|-1---------------7-------1------------------------------------------|
D|-2---------------7-------2---------/7-7-7---/7-8-9--/7-7-7---/7-8-9-|
A|-2---------------5-------2---------/7-7-7---/7-8-9--/7-7-7---/7-8-9-|
E|-0-----------------------0--------2/5-5-5-2/5-6-72/5-5-5-2/5-6-7-|

I get so mad that I just want to break the world.
I get so mad that I just want to break the world. Break the world


e|-------------------------------------| x2
B|-------------------------------------|
G|-------------------------------------|
D|--/7-7-7---/7-8-9--/7-7-7---/7-8-9---|
A|--/7-7-7---/7-8-9--/7-7-7---/7-8-9---|
E|-2/5-5-5-2/5-6-72/5-5-5-2/5-6-7---|

Break the World. Break the World.
Break the World. Break the World.


e|----------------------------------------------------------------------|
B|----------------------------------------------------------------------|
G|----------------------------------------------------------------------|
D|--/7-7-7---/7-8-9--/7-7-7---/7-8-9--/7-7-7---/7-8-9--/7-7-7---/7-8-9--|
A|--/7-7-7---/7-8-9--/7-7-7---/7-8-9--/7-7-7---/7-8-9--/7-7-7---/7-8-9--|
E|-2/5-5-5-2/5-6-72/5-5-5-2/5-6-7-2/5-5-5-2/5-6-72/5-5-5-2/5-6-7--|

| |


e|----------------------------------------------------------------------|
B|-14-14-14-14-14-14-13-13-13-13-13-13-14-14-14-14-14-17-17-17-17-17-17-|
G|-15-15-15-15-15-15-14-14-14-14-14-14-15-15-15-15-15-18-18-18-18-18-18-|
D|----------------------------------------------------------------------|
A|----------------------------------------------------------------------|
E|----------------------------------------------------------------------|


e|------------------------------------|
B|------------------------------------|
G|------------------------------------|
D|--/7-7-7---/7-8-9--/7-7-7---/7-8-9--|
A|--/7-7-7---/7-8-9--/7-7-7---/7-8-9--|
E|-2/5-5-5-2/5-6-72/5-5-5-2/5-6-7--|

| |


e|-------------17-17h19p17------------|
B|-17-17-17-19-------------19---------|
G|----18------------------------------|
D|------------------------------------|
A|------------------------------------|
E|------------------------------------|

BASS


G|-----------------------------------------------|
D|-2h4-4-4p2-2-2h4-4-4p2-2-2h4-4-4p2-2h4-4-4p2---|
A|-----------------------------------------------|
E|-----------------------------------------------|

|GUITAR |


e|-----------------------------------------------|
B|-----------------------------------------------|
G|-----------------------9-9-9-9-9-9-9-9-9-9-9-9-|
D|-------------------------(tremelo pick this----|
A|--------------------------------note)----------|
E|-----------------------------------------------|


e|-------------------|
B|-------------------|
G|-------------------|
D|--/7-7-7---/7-8-9-|
A|--/7-7-7---/7-8-9-|
E|-2/5-5-5-2/5-6-7-|

JASON’S EVERCLEAR TABS – http://members.tripod.com/~panec/

To play the most songs, including Invisible by Everclear by ukulele, the most important basic ukulele chords to learn are C chord, D chord, G chord, and Em chord.
These set you up to play a ton of songs, and each of them is easy to master.

  • 1
  • 2