If you are searching for Don’t Treat Me Bad ukulele chords, you have come to the best place.
You can play versatile instrument Don’t Treat Me Bad using ukulele or guitar.
This song by Firehouse can also be played by that instruments.
=

Don’t Treat Me Bad chords has rhythm and included in Firehouse (1990) album.
You can also get other musical genres, including jazz ukulele chords, country music ukulele chords, pop ukulele chords, world music ukulele chords, and rock ukulele chords here.

Don’t Treat Me Bad by Firehouse Ukulele Chords


(i play it with a capo on 1)

I never thought you’d hurt me
I guess you live and learn
That when you’re playin’ with fire you’re bound to get burned
I’ve been mistreated, I’ve been used before
I get kicked in the face still I come back for more

But I won’t cry no more ’cause the tears are all in vain
We can pick up the pieces and start it all again
Let’s just get back to the way it was before
Oh, girl I can’t take anymore

Chorus:
Baby, don’t treat me bad
Well, this could be the best thing that you’ll ever have
Baby, don’t treat me bad
(Well) you can do anything, but baby, don’t treat me bad
Oh, don’t treat me bad

(it’s played the same as the firs one)

I gave it everything, but you threw it all away
I can’t take anymore of these games that you play
I’ve been through heartache and I’ve been through pain
And it’s hard to believe you still treat me this way

But I won’t cry no more ’cause the tears are all in vain
We can pick up the pieces and start it all again
Let’s just get back to the way it was before
Oh, girl I can’t take anymore

Chorus

Oh girl, I can’t take anymore, oh yeah, now listen to me

Chorus

To play the most songs, including Don’t Treat Me Bad by Firehouse by ukulele, the most important basic ukulele chords to learn are C chord, D chord, G chord, and Em chord.
These set you up to play a many of songs, and each of them is easy to learn.

If you are looking for Love Of A Lifetime ukulele chords, you already visit to the right place.
You can play versatile instrument Love Of A Lifetime using ukulele or guitar.
This song by Firehouse can also be played by that instruments.
=

Love Of A Lifetime chords has rhythm and included in Good Acoustics (1996) album.
You can also get other musical genres, including jazz ukulele chords, country music ukulele chords, pop ukulele chords, world music ukulele chords, and rock ukulele chords here.

Love Of A Lifetime by Firehouse Ukulele Chords


inTRO (acoustic):
keyboard G5 D5(add9)/F# Em


E ---------|-----------3-----------------0---------|----------3---------
B ---------|---------3---3-------------3---3-------|-------------5------
G ---------|-------0-------0---------2-------2-----|-------4-------4----
D ---------|-----0-----------0-----0-----------0---|-----2-----------2--
A ---------|---------------------------------------|--------------------
E ---------|--3-----------------2------------------|--0-----------------

[D5(add9)]


E ---------0---------|---------0--------------2---------|--------0------
B -------3---3-------|-----------1--------------3-------|----------1----
G -----2-------2-----|-------0-----0--------2-----2-----|------0-----0--
D --0------------0---|-----2---------2----4---------4---|----2---------2
A -------------------|--0--------------2----------------|--3------------
E -------------------|----------------------------------|---------------

[D5(add9)]


E ---------0-------2-------3-------2-----------|
B -----------3-------3-------3-----------3-----|
G -----2-------2-------2-------2-----------2---|
D --0------------------------------------------|
A ---------------------------------------------|
E ---------------------------------------------|

VERSE 1:
I ..
we’D ..
together …
We’ll …
We …
with …
BRIDGE:
With ..[(B11)]
will …
With
Yo[(B11)]u’re …
CHORUS:
I
A
I
Forever ..
love …
VERSE 2:
With ..,
and ..
for …
Still …
We ..
because …
(repeat Chorus)
INSTRUMENTAL (electric solo goes here):
Oh! ………… I
finally …[E/G#]
A5 C#5 D5 G#bar Abar Bbar
A …
I ...
Forever ..
love …
Love
I ..
Oo! ..
I ..
of …
[D2(add9)]


E ----------0-----------------4---------|--------0----------------0-----
B --------2---2-----------------5-------|------3---3----------------0---
G ------2-------2----------4------4-----|----2-------2----------1-----1-
D ----2-----------2------6----------6---|--0-----------0------2---------2
A --0---------------/4------------------|-------------------2-----------
E --------------------------------------|-----------------0-------------


E --|---0------||
B --|---2------||
G --|---2------||
D --|---2------||
A --|---0------||
E --|----------||

CHORD DIAGRAMS:
G5 3×0033
Bm 024432
Am7 x02010
Bm7 x24232
B11 xx4230
G#bar 466544
Abar 577655
Bbar 799877
A5 x022xx
B5 x244xx
C5 x355xx
C#5 x466xx
D5 x577xx
E5 x799xx

great song tabbed by SLASH!….JUBO!

To play the this songs, including Love Of A Lifetime by Firehouse by ukulele, the most crucial basic ukulele chords to learn are C chord, D chord, G chord, and Em chord.
These set you up to play a ton of songs, and each of them is easy to master.

If you are searching for Reach for the Sky ukulele chords, you already come to the right place.
You can play versatile instrument Reach for the Sky using ukulele or guitar.
This song by Firehouse can also be played by that instruments.
=

Reach for the Sky chords has rhythm and included in Hold Your Fire (1992) album.
You can also get another musical style, including jazz ukulele chords, country music ukulele chords, pop ukulele chords, world music ukulele chords, and rock ukulele chords here.

Reach for the Sky by Firehouse Ukulele Chords

reach for the sky – firehouse

Tune your guitar 1/2 down (Ab).
The solo is not complete, there’s only the first part.. sorry but i’m not a professional. 😛

| / slide up
| slide down
| h hammer-on
| p pull-off
| ~ vibrato
| + harmonic
| x Mute note

INTRO:


|-----------------------------3-2-0----|------------------------------------------|
|-----5---------------------3-------3--|-----5---------------------2--------------|
|---4---4--------0--------2------------|---4---4--------0--------2----------2-----|
|-2------------2---2----0--------------|-2------------2---2----0----------2---2---|
|------------3-------------------------|------------3-------------------0---------|
|--------------------------------------|------------------------------------------|

repeat twice

INTRO VERSE:


|-----------------------------3-2-0----|------------------------------------------|
|-----5---------------------3-------3--|-----5---------------------2--------------|
|---4---4--------0--------2------------|---4---4--------0--------2----------2-----|
|-2------------2---2----0--------------|-2------------2---2----0----------2---2---|
|------------3-------------------------|------------3-------------------0---------|
|--------------------------------------|------------------------------------------|

Well I’m an outlaw I make my living on the run


|-----------------------------3-2-0----|------------------------------------------|
|-----5---------------------3-------3--|-----5---------------------2--------------|
|---4---4--------0--------2------------|---4---4--------0--------2----------------|
|-2------------2---2----0--------------|-2------------2---2----0----------2-------|
|------------3-------------------------|------------3-------------------0---0-2---|
|--------------------------------------|------------------------------------------|

My life is lonely, but I was born to need no one


|---------------------------------|----------------------------------|
|---------------------3-----3-----|-----5------------------2---------|
|-----0-----0-------2---2-----2---|---4---4-----0--------2-----------|
|---2---2-----2---0-------0-----0-|-2---------2---2----0-------2-----|
|-3-------3-----3-----------------|---------3----------------0---0-2-|
|---------------------------------|----------------------------------|

Always on my own ohh


|------------------------------------|
|---------------------3-----3------3-|
|-----0-----0-------2---2-----2----2-|
|---2---2-----2---0-------0-----0--0-|
|-3-------3-----3--------------------|
|------------------------------------|

VERSE #1: powercohrds, distortion_

My gun is loaded, I’m a six-shot heart attack
I pull the trigger, so you better watch your back
A E G A E D-DE E | E D G F# E D
Looking out for number one so you had better take this piece of advice
Make your move, stick ’em up or kiss your ass goodbye

( Tab from: http://www.guitartabs.cc/tabs/f/firehouse/reach_for_the_sky_tab.html )
CHORUS:
Reach for the sky or I will shoot you down
In the blink of an eye — reach for the sky
There’s nowhere to run nowhere to hide
Reach for the sky
I got the drop on you so raise them [D-D]high
Reach for the sky

VERSE #2: acoustic guitar, arpeggio_


E|---------------------------3-2-0---------|-----------------------------------|
B|---5-------------------3---------3-------|---5------------------3------------|
G|-----4-------0-----------2---------------|-----4-------0----------2-----2----|
D|-2-----2-------2-----0-------------------|-2-----2-------2----0-------2---2--|
A|-----------3-----3-----------------------|-----------3-----3--------0--------|
E|-----------------------------------------|-----------------------------------|

Well it’s a shot show down, this is what I do for fun


E|---------------------------3-2-0---------|-----------------------------------|
B|---5-------------------3---------3-------|---5------------------3------------|
G|-----4-------0-----------2---------------|-----4-------0----------2-----2----|
D|-2-----2-------2-----0-------------------|-2-----2-------2----0-------2---2--|
A|-----------3-----3-----------------------|-----------3-----3--------0--------|
E|-----------------------------------------|-----------------------------------|

I got e reputation, yeah I’m the fastest gun

no more arpeggio here
I’m living on the highway movin’ on from town to town
You better do it my way or I will shoot you down
E G A E G A E D-DE E | E D G F# E D
Looking out for number one so you had better take this piece of advice
Make your move, stick ’em up or kiss your ass goodbye

CHORUS:
Reach for the sky or I will shoot you down
In the blink of an eye — reach for the sky
There’s nowhere to run nowhere to hide
Reach for the sky
I got the drop on you so raise them [D-D]high
Reach for the sky

SOLO:


E|-------------------12-14-15-15--15-15-14----------------17 h 19 h 17--14-15--|
B|-15h17h15-12-15h17-----------------------15----------------------------------|
G|--------------------------------------------14-16 h 17-----------------------|
D|-----------------------------------------------------------------------------|
A|-----------------------------------------------------------------------------|
E|-----------------------------------------------------------------------------|

So you think you’re fast enough?

Oh go for your guns baby

CHORUS:
Reach for the sky or I will shoot you down
In the blink of an eye — reach for the sky
There’s nowhere to run nowhere to hide
Reach for the sky
Reach for the sky or I will shoot you down
In the blink of an eye — reach for the sky
There’s nowhere to run nowhere to hide
Reach for the sky
I got the drop on you so raise them high
Reach for the sky
Ohh reach for the sky

To play the this songs, including Reach for the Sky by Firehouse by ukulele, the most crucial basic ukulele chords to learn are C chord, D chord, G chord, and Em chord.
These set you up to play a ton of songs, and each of them is easy to learn.

If you are looking for Reach for the Sky ukulele chords, you’ve visit to the right site.
You can play versatile instrument Reach for the Sky using ukulele or guitar.
This song by Firehouse can also be played by that instruments.
=

Reach for the Sky chords has rhythm and included in Hold Your Fire (1992) album.
You can also find another musical genres, including jazz ukulele chords, country music ukulele chords, pop ukulele chords, world music ukulele chords, and rock ukulele chords here.

Reach for the Sky by Firehouse Ukulele Chords

reach for the sky – firehouse

Tune your guitar 1/2 down (Ab).
The solo is not complete, there’s only the first part.. sorry but i’m not a professional. 😛

| / slide up
| slide down
| h hammer-on
| p pull-off
| ~ vibrato
| + harmonic
| x Mute note

INTRO:


|-----------------------------3-2-0----|------------------------------------------|
|-----5---------------------3-------3--|-----5---------------------2--------------|
|---4---4--------0--------2------------|---4---4--------0--------2----------2-----|
|-2------------2---2----0--------------|-2------------2---2----0----------2---2---|
|------------3-------------------------|------------3-------------------0---------|
|--------------------------------------|------------------------------------------|

repeat twice

INTRO VERSE:


|-----------------------------3-2-0----|------------------------------------------|
|-----5---------------------3-------3--|-----5---------------------2--------------|
|---4---4--------0--------2------------|---4---4--------0--------2----------2-----|
|-2------------2---2----0--------------|-2------------2---2----0----------2---2---|
|------------3-------------------------|------------3-------------------0---------|
|--------------------------------------|------------------------------------------|

Well I’m an outlaw I make my living on the run


|-----------------------------3-2-0----|------------------------------------------|
|-----5---------------------3-------3--|-----5---------------------2--------------|
|---4---4--------0--------2------------|---4---4--------0--------2----------------|
|-2------------2---2----0--------------|-2------------2---2----0----------2-------|
|------------3-------------------------|------------3-------------------0---0-2---|
|--------------------------------------|------------------------------------------|

My life is lonely, but I was born to need no one


|---------------------------------|----------------------------------|
|---------------------3-----3-----|-----5------------------2---------|
|-----0-----0-------2---2-----2---|---4---4-----0--------2-----------|
|---2---2-----2---0-------0-----0-|-2---------2---2----0-------2-----|
|-3-------3-----3-----------------|---------3----------------0---0-2-|
|---------------------------------|----------------------------------|

Always on my own ohh


|------------------------------------|
|---------------------3-----3------3-|
|-----0-----0-------2---2-----2----2-|
|---2---2-----2---0-------0-----0--0-|
|-3-------3-----3--------------------|
|------------------------------------|

VERSE #1: powercohrds, distortion_

My gun is loaded, I’m a six-shot heart attack
I pull the trigger, so you better watch your back
A E G A E D-DE E | E D G F# E D
Looking out for number one so you had better take this piece of advice
Make your move, stick ’em up or kiss your ass goodbye

( Tab from: http://www.guitartabs.cc/tabs/f/firehouse/reach_for_the_sky_tab.html )
CHORUS:
Reach for the sky or I will shoot you down
In the blink of an eye — reach for the sky
There’s nowhere to run nowhere to hide
Reach for the sky
I got the drop on you so raise them [D-D]high
Reach for the sky

VERSE #2: acoustic guitar, arpeggio_


E|---------------------------3-2-0---------|-----------------------------------|
B|---5-------------------3---------3-------|---5------------------3------------|
G|-----4-------0-----------2---------------|-----4-------0----------2-----2----|
D|-2-----2-------2-----0-------------------|-2-----2-------2----0-------2---2--|
A|-----------3-----3-----------------------|-----------3-----3--------0--------|
E|-----------------------------------------|-----------------------------------|

Well it’s a shot show down, this is what I do for fun


E|---------------------------3-2-0---------|-----------------------------------|
B|---5-------------------3---------3-------|---5------------------3------------|
G|-----4-------0-----------2---------------|-----4-------0----------2-----2----|
D|-2-----2-------2-----0-------------------|-2-----2-------2----0-------2---2--|
A|-----------3-----3-----------------------|-----------3-----3--------0--------|
E|-----------------------------------------|-----------------------------------|

I got e reputation, yeah I’m the fastest gun

no more arpeggio here
I’m living on the highway movin’ on from town to town
You better do it my way or I will shoot you down
E G A E G A E D-DE E | E D G F# E D
Looking out for number one so you had better take this piece of advice
Make your move, stick ’em up or kiss your ass goodbye

CHORUS:
Reach for the sky or I will shoot you down
In the blink of an eye — reach for the sky
There’s nowhere to run nowhere to hide
Reach for the sky
I got the drop on you so raise them [D-D]high
Reach for the sky

SOLO:


E|-------------------12-14-15-15--15-15-14----------------17 h 19 h 17--14-15--|
B|-15h17h15-12-15h17-----------------------15----------------------------------|
G|--------------------------------------------14-16 h 17-----------------------|
D|-----------------------------------------------------------------------------|
A|-----------------------------------------------------------------------------|
E|-----------------------------------------------------------------------------|

So you think you’re fast enough?

Oh go for your guns baby

CHORUS:
Reach for the sky or I will shoot you down
In the blink of an eye — reach for the sky
There’s nowhere to run nowhere to hide
Reach for the sky
Reach for the sky or I will shoot you down
In the blink of an eye — reach for the sky
There’s nowhere to run nowhere to hide
Reach for the sky
I got the drop on you so raise them high
Reach for the sky
Ohh reach for the sky

To play the most songs, including Reach for the Sky by Firehouse by ukulele, the most important basic ukulele chords to learn are C chord, D chord, G chord, and Em chord.
These set you up to play a ton of songs, and each of them is easy to master.