If you are searching for Esta Viagem ukulele chords, you’ve come to the right site.
You can play versatile instrument Esta Viagem using ukulele or guitar.
This song by Fitacola can also be played by that instruments.
=

Esta Viagem chords has rhythm and included in album.
You can also get other musical style, including jazz ukulele chords, country music ukulele chords, pop ukulele chords, world music ukulele chords, and rock ukulele chords here.

Esta Viagem by Fitacola Ukulele Chords


-----------------------------------------------------------------------------

Esta Viagem – Fitacola


-----------------------------------------------------------------------------

Tabbed by:Cbl
Email:cabal_almeida@hotmail.com

Tuning:eBGDAE

D A# C (5X)

No quero voltar atrs, Repetir experincias ms.
Estou aqui para assumir, o que o tempo permitir.
o que eu vou procurar, E sem redundncias
espero um dia vir a terminar.


e|-8---8---8-----------8---8---8---------------------------------------|
B|---8---8---8-----------8---8---8-------------------------------------|
G|---------------------------------------------------------------------|
D|-------------7-7-7-7-------------7-7-7-7-7-7-------------------------|
A|-------------7-7-7-7-------------5-5-5-5-5-5-8-7-5---8-8-8-10101010--|
E|-------------6-6-6-6-------------------------------6-6-6-6-8-8-8-8---|

(P.M)
[(C)]Esta viagem[(A#)], contra o tempo, q[(C)]ue no pra e [(D)]nunca parar[(A#)][(C)]

Nasci de novo, vou recomear
a partir de hoje, no pode acabar. Nasci de novo.


Vou olhar em frente e continuar.
Com uma nova atitude, eu espero alcanar
O fim do caminho que pretendo seguir.
Estou confiante que um dia vou conseguir.


e|-8---8---8-----------8---8---8---------------------------------------|
B|---8---8---8-----------8---8---8-------------------------------------|
G|---------------------------------------------------------------------|
D|-------------7-7-7-7-------------7-7-7-7-7-7-------------------------|
A|-------------7-7-7-7-------------5-5-5-5-5-5-8-7-5---8-8-8-10101010--|
E|-------------6-6-6-6-------------------------------6-6-6-6-8-8-8-8---|

(P.M)
[(C)]Esta viagem[(A#)], contra o tempo, q[(C)]ue no pra e [(D)]nunca parar[(A#)][(C)]

Nasci de novo, vou recomear
a partir de hoje, no pode acabar. Nasci de novo.
Nasci de novo, nasci de novo e no pode acabar.
F C D A# (2X) F

Music:
www.myspace.com/fitacola
facebook.com/fitacolarock

FITACOLA TV:
www.youtube.com/fitacolatv

Information:
fitacolabooking@gmail.com
fitacola@gmail.com
facebook.com/fitacolarock

To play the most songs, including Esta Viagem by Fitacola by ukulele, the most important basic ukulele chords to learn are C chord, D chord, G chord, and Em chord.
These set you up to play a many of songs, and each of them is easy to master.