If you are searching for Stranger Things Have Happened ukulele chords, you already visit to the best place.
You can play versatile instrument Stranger Things Have Happened using ukulele or guitar.
This song by Foo Fighters can also be played by that instruments.
=

Stranger Things Have Happened chords has rhythm and included in Echoes, Silence, Patience & Grace (2007) album.
You can also find another musical genres, including jazz ukulele chords, country music ukulele chords, pop ukulele chords, world music ukulele chords, and rock ukulele chords here.

Stranger Things Have Happened by Foo Fighters Ukulele Chords


-------------------------------------------------------------------------------

STRANGER THINGS HAVE HAPPENED – Foo Fighters


-------------------------------------------------------------------------------

Tabbed by: THWIT

The intro and verse are just melodic, chords are only at chorus.

Intro/Verse


e|---------------------------------------------|
B|---------------------------------------------|
G|-------2----2--2-----------------------------|
D|-------0----0--2-----------0----0--0---------|
A|--2-2-----2-------0--------0----0--2---------|
E|--------------------2---2-----2-------1--0---|
e|--------------------------------------------|
B|--------------------------------------------|
G|---2---2--2-----2---2---2--2----------------|
D|---0---0--2-----0---0---0--2------0---------|
A|------------------------------0h2-----------|
E|0----0--------0---0---0---------------------|

Verse 1
Play the verse pattern
God damn this dusty room,this hazy afternoon

I’m breathing in this silence like never before

This feeling that I get, this one last cigarette

As I lay awake and wait for you to come through the door.

Oh maybe maybe maybe I can share it with you

I behave I behave I behave so I can share it with you.

Chorus

bm f#m
You are not alone dear loneliness

You forgot that I remembered this

D f#m F E Esus4 E
Oh stranger stranger stranger things have happened I know

bm f#m
You are not alone dear loneliness

You forgot that I remembered this

D f#m F E Esus4 E
Oh stranger stranger stranger things have happened I know

Bridge (instrumental same pattern as in the verses)

Verse 2
Play the verse pattern
We’ll dream about somewhere our smoke will fill the air

As I lay awake and wait for you to walk out that door

I can change I can change I can change but who you want me to be

I’m the same I’m the same I’m the same what do you want me to be

Chorus (till fade)

To play the most songs, including Stranger Things Have Happened by Foo Fighters by ukulele, the most crucial basic ukulele chords to learn are C chord, D chord, G chord, and Em chord.
These set you up to play a a lot of songs, and each of them is easy to learn.

If you are searching for Word Forward ukulele chords, you have visit to the best site.
You can play versatile instrument Word Forward using ukulele or guitar.
This song by Foo Fighters can also be played by that instruments.
=

Word Forward chords has rhythm and included in Other Songs album.
You can also find other musical genres, including jazz ukulele chords, country music ukulele chords, pop ukulele chords, world music ukulele chords, and rock ukulele chords here.

Word Forward by Foo Fighters Ukulele Chords


----------------------

Artist: Foo Fighters
Song: Word Forward
Album: Greatest Hits
Released: 2009


----------------------

!There are two different Em7-Chords in V1!:
Em7 Em7


|--3--| |--3--|
|--3--| |--3--|
|--0--| |--0--|
|--2--| |--0--|
|--2--| |--2--|
|--0--| |--0--|
Intro: |: Em - Dsus4 - C - G/H - C - Dsus4 - G :| 2x

Verse 1:
G G/H Em7 Em7
Good bye Jimmy, farewell youth
I must be on my way I’ve [Dsus4/F]had enough of you
G G/H Em7 Em7
Was a young man, proud and true
Just a simple boy with [Dsus4/F]nothing left to lose

Pre-Chorus:
Years [D/F#]that I’ve wast[(Csus2)]ed
These[(G)D] I owe you’s

( Tab from: http://www.guitartabs.cc/tabs/f/foo_fighters/word_forward_crd_ver_2.html )
Verse 2:
They’re just fucking words
This is life or death
It’s time to clear the air
You better save your breath
Say have you heard
Say have you heard
The Poison in my heart
And voices in my head

Pre-Chorus:
Years [D/F#]that I’ve wasted
These[(G)D] I owe you’s

Chorus:
I meant every
word for wo[G/H]rd for word forward
Word for wo[G/H]rd for word forward
Word for wo[G/H]rd for word forward
Word for wo[G/H]rd for word forward

Bridge:
But it’s only words
I meant every word
They’re just fucking words

(Intro again)x2

Outro:
|: Word for wo[G/H]rd for word forward 😐 8x[-]

To play the this songs, including Word Forward by Foo Fighters by ukulele, the most important basic ukulele chords to learn are C chord, D chord, G chord, and Em chord.
These set you up to play a many of songs, and each of them is easy to learn.

If you are looking for In Your Honor ukulele chords, you’ve visit to the right place.
You can play versatile instrument In Your Honor using ukulele or guitar.
This song by Foo Fighters can also be played by that instruments.
=

In Your Honor chords has rhythm and included in In Your Honor (2005) album.
You can also get other musical style, including jazz ukulele chords, country music ukulele chords, pop ukulele chords, world music ukulele chords, and rock ukulele chords here.

In Your Honor by Foo Fighters Ukulele Chords


——————————————————————————-

IN YOUR HONOR – Foo Fighters

——————————————————————————-

Tabbed by: Barry Miles
Email: shoebox_of_lies@hotmail.com

Tuning: Standard

Intro:
(E5 for about 8 measures)


Can you hear

Verse 1:
me, hear me screaming,
breaking in the muted sky? This thun-
der heart like bombs beating,
echoing a thousand miles.
( Tab from: http://www.guitartabs.cc/tabs/f/foo_fighters/in_your_honor_crd_ver_2.html )
Chorus:
Mine is yours and yours is mine,
there is no divide.
In your honor, I would die tonight
Mine is yours and yours is mine,
I will sacrifice.
In your honor, I would die tonight, for you to feel alive.

Interlude:

Can you feel

Verse 2(same chords):
me, feel me breathing?
One last breath before I close my eyes. This of-
fering for receiving, de-
liver me into the other side.

Chorus

Bridge:
For you to feel alive,
For you to feel alive,
For you to feel alive

PAUSE

Ah – – – – – – – !

To play the this songs, including In Your Honor by Foo Fighters by ukulele, the most crucial basic ukulele chords to learn are C chord, D chord, G chord, and Em chord.
These set you up to play a many of songs, and each of them is easy to learn.

If you are searching for Doll ukulele chords, you have visit to the right site.
You can play versatile instrument Doll using ukulele or guitar.
This song by Foo Fighters can also be played by that instruments.
=

Doll chords has rhythm and included in The Colour and the Shape (1997) album.
You can also get another musical genres, including jazz ukulele chords, country music ukulele chords, pop ukulele chords, world music ukulele chords, and rock ukulele chords here.

Doll by Foo Fighters Ukulele Chords


Dif.: 4

NOTE: I’m just gonna show you the chords and where to hit them and you can figure out the rest.
Here’s all the chords that are used

E|–3–|–0–|–2–|–1–|–2–|–1–|–0–|
B|–3–|–1–|–3–|–2–|–3–|–1–|–0–|
G|–0–|–2–|–4–|–3–|–2–|–2–|–0–|
D|–0–|–2–|–4–|–3–|–0–|–3–|–2–|
A|–2–|–0–|–2–|–1–|–x–|–3–|–2–|
E|–3–|–x–|–2–|–1–|–x–|–1–|–0–|


You know in all of the times that we shared

I’ve never felt so scared

Doll me up in my bad luck

I’ll meet you there

(Drums do big fill)

I wish I had never had taken this dare

I wasn’t quite prepared

Doll me up in my bad luck

Oooh oooh oooh oooh oooh oooh

Doll me up in my bad luck

I’ll meet you….……… there

That’s it. I love this song, it’s so soft and innocent and . but yeah…..

To play the most songs, including Doll by Foo Fighters by ukulele, the most crucial basic ukulele chords to learn are C chord, D chord, G chord, and Em chord.
These set you up to play a ton of songs, and each of them is easy to learn.

If you are looking for Outside ukulele chords, you already visit to the right place.
You can play versatile instrument Outside using ukulele or guitar.
This song by Foo Fighters can also be played by that instruments.
=

Outside chords has rhythm and included in Sonic Highways (2014) album.
You can also get other musical style, including jazz ukulele chords, country music ukulele chords, pop ukulele chords, world music ukulele chords, and rock ukulele chords here.

Outside by Foo Fighters Ukulele Chords


RIFF: Am C Em Em

VERSES
Am C Em Em (x16)
There you are dancing at your altar
Beautiful earthling, dressed in kashmir
All of your sound echoes in the canyons
Down below they’re dreaming
Hear the sirens screaming

Another time, another world
Girls were boys and boys were girls
Find the glitter in the litter
Like a haunt, it’s got to move
Everybody needs some room
There’s something out there

CHORUS
There’s a long straight road, out of the cold
And we can leave it all behind
I wanna get outside, baby, let’s get outside
I wanna get outside, outside, of me

RIFF: Am C Em Em

VERSE
Am C Em Em (x8)
Oh, I found the space between the spaces
Standing in the nothing, and time will cling to
And as the wind will beat you down
And the wind the only sound
There’s something out there

CHORUS
There’s a long straight road, out of the cold
And we can leave it all behind
I wanna get outside, baby, let’s get outside
I wanna get outside, outside, of me

INSTRUMENTAL: Am Em D C

RIFF: Am C Em Em

CHORUS
There’s a long straight road, out of the cold
And we can leave it all behind
I wanna get outside, baby, let’s get outside
I wanna get outside, outside, of me

To play the this songs, including Outside by Foo Fighters by ukulele, the most important basic ukulele chords to learn are C chord, D chord, G chord, and Em chord.
These set you up to play a many of songs, and each of them is easy to learn.

If you are searching for Concrete and Gold ukulele chords, you already visit to the best place.
You can play versatile instrument Concrete and Gold using ukulele or guitar.
This song by Foo Fighters can also be played by that instruments.
=

Concrete and Gold chords has rhythm and included in Concrete and Gold (2017) album.
You can also find another musical genres, including jazz ukulele chords, country music ukulele chords, pop ukulele chords, world music ukulele chords, and rock ukulele chords here.

Concrete and Gold by Foo Fighters Ukulele Chords

Tuning:EADGBe

[Verse 1]


e|---------------------------------------------------------------|
B|---------------------------------------------------------------|
G|---------------------------------------------------------------|
D|-7---------------------9/10-5-------------------7/8-3----------|
A|-x---------------------x--x-x-------------------x-x-x----------|
E|-5---------------------7/-8-3-------------------5/6-1----------|

You lost your mind I could not go


e|---------------------------------------------------------------|
B|---------------------------------------------------------------|
G|---------------------------------------------------------------|
D|--------------------------5/7-2--------------------------------|
A|--------------------------x-x-x--------------------------------|
E|--------------------------3/5-0--------------------------------|

What little time we spent A penny on the floor


e|---------------------------------------------------------------|
B|---------------------------------------------------------------|
G|-7---------------------9/10-5-------------------7/8-3----------|
D|-x---------------------x--x-x-------------------x-x-x----------|
A|-5---------------------7/-8-3-------------------5/7-1----------|
E|---------------------------------------------------------------|

My desperation A spinning top


e|---------------------------------------------------------------|
B|---------------------------------------------------------------|
G|---------------------------5-7---------------------------------|
D|---------------------------x-x-7-------------------------------|
A|---------------------------3/5-x-------------------------------|
E|-------------------------------5-------------------------------|

Revolving on and on A world the never stops

[Verse 2]


e|---------------------------------------------------------------|
B|---------------------------------------------------------------|
G|---------------------------------------------------------------|
D|-7---------------------9/10-5-------------------7/8-3----------|
A|-x---------------------x--x-x-------------------x-x-x----------|
E|-5---------------------7/-8-3-------------------5/6-1----------|

Is it all mine? How could I know?


e|---------------------------------------------------------------|
B|---------------------------------------------------------------|
G|---------------------------------------------------------------|
D|--------------------------5/7-2--------------------------------|
A|--------------------------x-x-x--------------------------------|
E|--------------------------3/5-0--------------------------------|

We threw the rind away Swallowed all the core


e|---------------------------------------------------------------|
B|---------------------------------------------------------------|
G|-7---------------------9/10-5-------------------7/8-3----------|
D|-x---------------------x--x-x-------------------x-x-x----------|
A|-5---------------------7/-8-3-------------------5/7-1----------|
E|---------------------------------------------------------------|

Tried levitation You’re not alone


e|---------------------------------------------------------------|
B|---------------------------------------------------------------|
G|---------------------------5/7---------------------------------|
D|---------------------------x-x-7-------------------------------|
A|---------------------------3/5-x-------------------------------|
E|-------------------------------5-------------------------------|

The stars are holding open a door we’ll never close

[Chorus 1]


e|-2---------------------------0---------------------------------|
B|-3---------------------------0---------------------------------|
G|-2---------------------------0---------------------------------|
D|-0---------------------------2---------------------------------|
D|-----------------------------2---------------------------------|
E|-----------------------------0---------------------------------|

I have an engine made of gold


e|-2---------------------------0---------------------------------|
B|-3---------------------------0---------------------------------|
G|-2---------------------------0---------------------------------|
D|-0---------------------------2---------------------------------|
D|-----------------------------2---------------------------------|
E|-----------------------------0---------------------------------|

Something beautiful the world will never know

[E7/G#]


e|-3---------------------------0----------------------------0----|
B|-3---------------------------2----------------------------3----|
G|-4---------------------------2----------------------------1----|
D|-4---------------------------2---------------------------------|
A|-2---------------------------0---------------------------------|
E|---------------------------------------------------------------|

(Ah)


e|-3-------------------------------------------------------------|
B|-3-------------------------------------------------------------|
G|-0--------------------------------------7----------------------|
D|-0--------------------------------------7----------------------|
A|-2--------------------------------------5----------------------|
E|-3-------------------------------------------------------------|

The roots are stronger than you know


e|-3-------------------------------------------------------------|
B|-3-------------------------------------------------------------|
G|-0----------------------------------------7--------------------|
D|-0----------------------------------------7--------------------|
A|-2----------------------------------------5--------------------|
E|-3-------------------------------------------------------------|

Up through the concrete they will grow


e|-0----3---------0----5----0---------0-|
B|-1----3---------0----6----1---------2-|
G|-2----3---------0----7----0----3----2-|
D|-2----5----3----2----7----2----3----2-|
A|-0----5----3----2----5----3----1----0-|
E|------3----1----0---------------------|

[Verse 3]


e|-0---------------------------3---------------------------------|
B|-1---------------------------3---------------------------------|
G|-2---------------------------3---------------------------------|
D|-2---------------------------5---------------------------------|
A|-0---------------------------5---------------------------------|
E|-----------------------------3---------------------------------|

Is it all mine? I can’t let go


e|-1---------------------------0---------------------------------|
B|-1---------------------------0---------------------------------|
G|-2---------------------------0---------------------------------|
D|-3---------------------------2---------------------------------|
A|-3---------------------------2---------------------------------|
E|-1---------------------------0---------------------------------|

What little time we spent A penny on the floor


e|-5---------------------------0---------------------------------|
B|-6---------------------------1---------------------------------|
G|-7---------------------------0---------------------------------|
D|-7---------------------------2---------------------------------|
A|-5---------------------------3---------------------------------|
E|---------------------------------------------------------------|

My desperation Is this a curse?


e|-----------------------------0---------------------------------|
B|-----------------------------2---------------------------------|
G|-3---------------------------2---------------------------------|
D|-3---------------------------2---------------------------------|
A|-1---------------------------0---------------------------------|
E|---------------------------------------------------------------|

Till death do us part For better or for worse

[Chorus 2]


e|-2---------------------------0---------------------------------|
B|-3---------------------------0---------------------------------|
G|-2---------------------------0---------------------------------|
D|-0---------------------------2---------------------------------|
D|-----------------------------2---------------------------------|
E|-----------------------------0---------------------------------|

I have an engine made of gold


e|-2---------------------------0---------------------------------|
B|-3---------------------------0---------------------------------|
G|-2---------------------------0---------------------------------|
D|-0---------------------------2---------------------------------|
D|-----------------------------2---------------------------------|
E|-----------------------------0---------------------------------|

Something beautiful the world will never know

[E7/G#]


e|-3---------------------------0----------------------------0----|
B|-3---------------------------2----------------------------3----|
G|-4---------------------------2----------------------------1----|
D|-4---------------------------2---------------------------------|
A|-2---------------------------0---------------------------------|
E|---------------------------------------------------------------|

(Ah)


e|-3-------------------------------------------------------------|
B|-3-------------------------------------------------------------|
G|-0--------------------------------------7----------------------|
D|-0--------------------------------------7----------------------|
A|-2--------------------------------------5----------------------|
E|-3-------------------------------------------------------------|

The roots are stronger than you know


e|-3-------------------------------------------------------------|
B|-3-------------------------------------------------------------|
G|-0----------------------------------------7--------------------|
D|-0----------------------------------------7--------------------|
A|-2----------------------------------------5--------------------|
E|-3-------------------------------------------------------------|

Up through the concrete they will grow


e|-3-------------------------------------------------------------|
B|-3-------------------------------------------------------------|
G|-0--------------------------------------7----------------------|
D|-0--------------------------------------7----------------------|
A|-2--------------------------------------5----------------------|
E|-3-------------------------------------------------------------|

Our roots are stronger than you know


e|-3-------------------------------------------------------------|
B|-3-------------------------------------------------------------|
G|-0----------------------------------------7--------------------|
D|-0----------------------------------------7--------------------|
A|-2----------------------------------------5--------------------|
E|-3-------------------------------------------------------------|

Up through the concrete they will grow

To play the most songs, including Concrete and Gold by Foo Fighters by ukulele, the most crucial basic ukulele chords to learn are C chord, D chord, G chord, and Em chord.
These set you up to play a many of songs, and each of them is easy to master.

If you are looking for Lonely as You ukulele chords, you’ve come to the best place.
You can play versatile instrument Lonely as You using ukulele or guitar.
This song by Foo Fighters can also be played by that instruments.
=

Lonely as You chords has rhythm and included in One by One (2002) album.
You can also get another musical genres, including jazz ukulele chords, country music ukulele chords, pop ukulele chords, world music ukulele chords, and rock ukulele chords here.

Lonely as You by Foo Fighters Ukulele Chords

e|——-|——-|————-|——-|————-|——-|——-|—7—|
B|——-|——-|————-|——-|————-|——-|——-|—7—|
G|—3—|—6—|————-|——-|————-|—3—|—8—|—7—|
D|—4—|—8—|—6–8–9—|—4—|—4–6–8—|—4—|—9—|—9—|
A|—4—|—8—|—7———|—6—|—5———|—4—|—9—|—9—|
E|—2—|—6—|—7———|—6—|—5———|—2—|—7—|—7—|

[D/A]


What would I do
Lonely as you
[D/A]Pleasure or pain
I can’t choose
What would I do
Lonely as you
[D/A]Pleasure or pain
I can’t choose

[Verse 1]
Wake up
You’re dreaming
I can’t stand your screaming
Drowning out these prayers
Just some words without meaning

[Interlude]
Spare all the breaching
My secrets worth keeping
[D/A]No one understands like I do

[Verse 2]
Keep out of reach
I’m your leading deletion
[D/A]Hide behind these masks
Though they still see right through them

[Pre-Chorus]
Every now and then
You’re down and out my friend
Down and out again
Down and out again
Down and out again
But I’m down with you


One more time for the last time
One more time for release
One more time for the last time
Everyone wants to believe


Blame it on you, thought these years I’ve been losing
B[D/A]lame it on the past, it’s the last place I know you
Blame all the children, they’re raging and ruined
Bl[D/A]ame it on the black and the blue

[Pre-Chorus]
Every now and then
You’re down and out my friend
Down and out again
Down and out again
Down and out again
But I’m down with you


One more time for the last time
One more time for release
One more time for the last time
Everyone wants to believe

[Pre-Chorus]
Every now and then
You’re down and out my friend
Down and out again
Down and out again
Down and out again
But I’m down with you


One more time for the last time
One more time for release
One more time for the last time
Everyone wants to believe

One more time for the last time
One more time for release
One more time for the last time
Everyone wants to believe


One more time for the last time
One more time for release
One more time for the last time
E[D/A]veryone wants to believe, all right

To play the most songs, including Lonely as You by Foo Fighters by ukulele, the most crucial basic ukulele chords to learn are C chord, D chord, G chord, and Em chord.
These set you up to play a many of songs, and each of them is easy to learn.

If you are looking for Good Grief ukulele chords, you’ve visit to the best site.
You can play versatile instrument Good Grief using ukulele or guitar.
This song by Foo Fighters can also be played by that instruments.
=

Good Grief chords has rhythm and included in Foo Fighters (1995) album.
You can also find another musical style, including jazz ukulele chords, country music ukulele chords, pop ukulele chords, world music ukulele chords, and rock ukulele chords here.

Good Grief by Foo Fighters Ukulele Chords


Good Grief – Foo Fighters

Intro: (Bb C# F G#)
since I’m putting down all
of the true things around but I like it
I handed down the crown
given the jewels and the answers of may
the thought of being ousted
comes and goes comes and goes
when I think about it
wind blows
hate it hate it hate it
hate it hate it hate it
hate it hate it
Intro: (Bb C# F G#)
run me out of town
somewhere a move might intended a gown at
pissed at all the bowels
always the blues and a delicate smile
missed all of the sideways
gull and noun gull and noun
chills and petty band-aids
wrapped around
hate it hate it hate it
hate it hate it hate it
hate it hate it
GOOD GRI…………..EF
GOOD GRI………………EF
Intro: (Bb C# F G#)
since I’m putting down all
of the true things around but I like it
handed down the crown
given the jewels and the answers of may
the thought of being ousted
comes and goes comes and goes
when I think about it
wind blows
hate it hate it hate it
hate it hate it hate it
hate it hate it

To play the most songs, including Good Grief by Foo Fighters by ukulele, the most crucial basic ukulele chords to learn are C chord, D chord, G chord, and Em chord.
These set you up to play a ton of songs, and each of them is easy to learn.

If you are searching for But, Honestly ukulele chords, you’ve come to the right place.
You can play versatile instrument But, Honestly using ukulele or guitar.
This song by Foo Fighters can also be played by that instruments.
=

But, Honestly chords has rhythm and included in Echoes, Silence, Patience & Grace (2007) album.
You can also find another musical genres, including jazz ukulele chords, country music ukulele chords, pop ukulele chords, world music ukulele chords, and rock ukulele chords here.

But, Honestly by Foo Fighters Ukulele Chords


This is tabbed out for one guitar, acoustic or electric, so if you’re looking for
the whole arrangement you’re barking up the wrong tree 🙂

Just listen to the song to figure out where to change chords.
Enjoy!

%———————————————%

Where are you off to with that head of yours?
Is there somewhere you should be?
Was it something that I said the time I held you down
and told you it's not you it’s only me?
Maybe

Don’t take what I don’t need

(Give me back my peace of mind)
Don’t say what I don’t need

(Give my back my precious time)
No way you’ll silence me
You’ll see

What you up to now your mirror’s gone?
Is there someone you should be?
Did you think I was just fooling ’round with you?
But honestly x3

Don’t take what I don’t need

(Give me back my peace of mind)
Don’t say what I don’t need

(Give my back my precious time)
No way you’ll silence me

(Give me back my peace and quiet)
Nowhere to hide from me
You’ll see

And tonight I thank the stars
As I count my lucky scars
For everything you’ve given me

And all the wants I gave to you
Something borrowed, something blue

If you want them back

I’ll give it to you
Give it to you
Give it to you
Give it to you
(repeat 4 times)

And one more thing that I gave to you
And one more thing that I gave to you
And one more thing that I gave to you
And one more thing that I gave to you
(repeat 2 times)

To play the this songs, including But, Honestly by Foo Fighters by ukulele, the most crucial basic ukulele chords to learn are C chord, D chord, G chord, and Em chord.
These set you up to play a many of songs, and each of them is easy to master.

If you are looking for Overdrive ukulele chords, you have visit to the right place.
You can play versatile instrument Overdrive using ukulele or guitar.
This song by Foo Fighters can also be played by that instruments.
=

Overdrive chords has rhythm and included in One by One (2002) album.
You can also find another musical genres, including jazz ukulele chords, country music ukulele chords, pop ukulele chords, world music ukulele chords, and rock ukulele chords here.

Overdrive by Foo Fighters Ukulele Chords


Foo Fighters – Overdrive
(normal tuning)

Tabbed by a Brazilian Fan -> Paulo Arruda – (logyati@yahoo.com)

::Chords::

D – (xx0232)
D9 – (xx0230)
G – (320033)
Am – (x02210)
A4 – (x02230)

Intro


e|-------------------------------|
B|-------------------------------|
G|-------------------------------|
D|-2/4--2--0-----------0-----0h2-|
A|------------2--0--2-----2------|
E|-------------------------------|


e|-------------------------------|
B|-------------------------------|
G|-------------------------------|
D|-2/4--2--0-----------0---------|
A|------------2--0--2-----2--0---|
E|-------------------------------|


e|-------------------------------|
B|-------------------------------|
G|-------------------------------|
D|-2/4--2--0-----------0-----0h2-|
A|------------2--0--2-----2------|
E|-------------------------------|

G -> during the slide


e|----------------------------0--|
B|----------------------------3--|
G|-------7/---9/--11/---12----2--|
D|--2/4-----------------------0--|
A|-------5/---7/---9/---10-------|
E|-------------------------------|

Verse (Second guitar: use power chords)



Chorus (Second guitar: use the same chords)

(same chords of intro, without the solo, but the last slide)

Outro


e|---5-----5-----5---5-----5-----5-|
B|-8---8-----8-----7---7-----7-----| \
G|-------7-----7---------7-----7---| ---- \
D|---------------------------------| ---- / x 4
A|---------------------------------| /
E|---------------------------------|


e|--------8----------------7-------2---5/7--5--3--2-----5-|
B|---10-----10---------8-----8-----3-----------------3--7-|
G|-9----9------9-----7---7-----7---2--------------------7-|
D|--------------------------------------------------------|
A|--------------------------------------------------------|
E|--------------------------------------------------------|

Last Chorus


e|-------------------------------|
B|-------------------------------|
G|-------------------------------|
D|-2/4--2--0-----------0-----0h2-|
A|------------2--0--2-----2------|
E|-------------------------------|


e|-------------------------------|
B|-------------------------------|
G|-------------------------------|
D|-2/4--2--0-----------0---------|
A|------------2--0--2-----2--0---|
E|-------------------------------|


e|-------------------------------|
B|-------------------------------|
G|-------------------------------|
D|-2/4--2--0-----------0-----0h2-|
A|------------2--0--2-----2------|
E|-------------------------------|

G -> during the slide


e|------------------------------------------|
B|------------------------------------------|
G|-------7/---9/--11/---12---7/---9/---11/--|
D|--2/4-------------------------------------|
A|-------5/---7/---9/---10---5/---7/----9/--|
E|------------------------------------------|
e|-------------------------------------------------------0-|
B|-------------------------------------------------------3-|
G|--12---14/---12/---11/---9---14/---16/---17/---16------2-|
D|-------------------------------------------------------0-|
A|--10---12/---10/----9/---7---12/---14/---15/---14--------|
E|---------------------------------------------------------|

________________________________________________________
Tabbed by a Brazilian Fan -> Paulo – (logyati@yahoo.com)

To play the this songs, including Overdrive by Foo Fighters by ukulele, the most crucial basic ukulele chords to learn are C chord, D chord, G chord, and Em chord.
These set you up to play a a lot of songs, and each of them is easy to master.

  • 1
  • 2