If you are looking for Parade ukulele chords, you already come to the right place.
You can play versatile instrument Parade using ukulele or guitar.
This song by Garbage can also be played by that instruments.
=

Parade chords has rhythm and included in beautifulgarbage (2001) album.
You can also get another musical style, including jazz ukulele chords, country music ukulele chords, pop ukulele chords, world music ukulele chords, and rock ukulele chords here.

Parade by Garbage Ukulele Chords


-------------------------------------------------------------------------------

PARADE – Garbage


-------------------------------------------------------------------------------

Tabbed by: Ge
Email: georgie_porgie_girl@hotmail.com

Tuning: EADGBe

Chords:

[D5/A]


e|--0--|-X--|--0--|-0--|--4--|--2--|-X--|--1--|--2--|--X--|
B|--2--|-X--|--3--|-0--|--7--|--3--|-X--|--1--|--2--|--X--|
G|--2--|-2--|--2--|-2--|--6--|--2--|-2--|--2--|--2--|--X--|
D|--2--|-2--|--2--|-2--|--6--|--0--|-0--|--3--|--4--|--4--|
A|--0--|-0--|--0--|-0--|--4--|--X--|-0--|--3--|--4--|--4--|
E|--X--|-X--|--X--|-X--|--X--|--X--|-X--|--1--|--2--|--2--|

Fill:


e|-----------------|
B|----10-9-----7---|
G|9--------9-----9-|
D|--7--------7-----|
A|-----------------|
E|-----------------|
Guitar 1:|A---|Asus4---|C#sus4---|Asus4---|
G1:|A5---|D5/A---|F#5---|D5/A---|
G1:|A5---|D5/A---|F#5---|D5/A---|

G2: Fill


G1:|A5---|D5/A---|F#5---|D5/A---|

G2: Fill

KABOOM
Get it right
Get it right now
Get it right
Do it good
Get it right now
KABOOM
Get it right
Get it right now
Get it right
Do it good
Get it right now

Oh let’s bomb the factory
That makes all the wannabes
Let’s burst all the bubbles
That brainwash the masses

CHORUS:
Fill
As far as I can tell
It doesn’t matter who you [D5/A]are
Fill [D5/A]
If you can believe there’s something worth fighting for
Fill
The color of an eye
The glory of a sudden [D5/A]view
Fill
The baby in your arms
The smile he always shoots at [D5/A]you

Believing in nothing
Makes life so boring
So let’s pray for something
To feel good in the morning

CHORUS:
Fill
As far as I can tell
It doesn’t matter who you [D5/A]are
Fill [D5/A]
If you can believe there’s something worth fighting for
Fill
The color of an eye
The glory of a sudden [D5/A]view
Fill
The baby in your arms
The smile he always shoots at [D5/A]you

KABOOM
Get it right
Get it right now
Get it right
Do it good
Get it right now
KABOOM
Get it right
Get it right now
Get it right
Do it good
Get it right now
KABOOM
KABOOM
KABOOM
KABOOM

Oh doctor
We’re dying
There’s no use in crying
So live for tomorrow
And do what you have to

CHORUS:
Fill
As far as I can tell
It doesn’t matter who you [D5/A]are
Fill [D5/A]
If you can believe there’s something worth fighting for
Fill
The color of an eye
The glory of a sudden [D5/A]view
Fill
The baby in your arms
The smile he always shoots at [D5/A]you


|A---|Asus4---|A---|Asus4---|

Oh let’s pray for something
To feel good in the morning
In the morning
As far as I can tell (Get it right now)
In the morning
As far as I can tell (Get it right now)
In the morning
As far as I can tell (Get it right now)
In the morning
As far as I can tell (Get it right now)
In the morning
As far as I can tell (Get it right now)
In the morning
As far as I can tell (Get it right now)

To play the most songs, including Parade by Garbage by ukulele, the most important basic ukulele chords to learn are C chord, D chord, G chord, and Em chord.
These set you up to play a many of songs, and each of them is easy to master.

If you are looking for Special ukulele chords, you already visit to the best place.
You can play versatile instrument Special using ukulele or guitar.
This song by Garbage can also be played by that instruments.
=

Special chords has rhythm and included in Version 2.0 (1998) album.
You can also find other musical genres, including jazz ukulele chords, country music ukulele chords, pop ukulele chords, world music ukulele chords, and rock ukulele chords here.

Special by Garbage Ukulele Chords


Band: Garbage
Song Title: Special
Tuning: Eb Ab Db Gb Bb Eb

Chords used for this song.

[B/D#]


Eb|-----7-----4-----2-----2------------------------------------------------|
Bb|-----9-----5-----2-----4-----2------------------------------------4-----|
Gb|-----9-----6-----2-----4-----2-----4-----2-----11-----9-----6-----4-----|
Db|-----9-----6-----4-----4-----2-----4-----2-----11-----9-----6-----4-----|
Ab|-----7-----4-----4-----2-----------2-----------9------7-----4-----6-----|
Eb|-----------------2------------------------------------------------------|

Intro Riff:


Eb|-----------------------------------|-----------------------------------|
Bb|-----------0-----------0-----------|-----------0-----------0-----------|
Gb|-------2-----------2-----------2---|-------2-----------2-----------2---|
Db|---4-----------4-----------4-------|---2-----------2-----------2-------|
Ab|-----------------------------------|-----------------------------------|
Eb|-----------------------------------|-----------------------------------|
Eb|--------------------------------------|-------|
Bb|--------------------------------------|-------|
Gb|-----------4-----------4---6-p.o.-4---|---4---|
Db|-------4-----------4------------------|---4---|
Ab|---6-----------6----------------------|---2---|
Eb|--------------------------------------|-------|

Verse 1:

I’m living without you
I know all about you
I have run you down into the ground
Spread disease about you over town

I used to adore you
I couldn’t control you
There was nothing that I wouldn’t do
To keep myself around and close to you

Chorus:
Listen to the song for placement of Fill Riff A

Fill Riff A
Let the notes in this riff ring through out.


Eb|-----------4---2---|-----------4---2---|-----------4---2---|-----------4---2---|
Bb|-------2-----------|-------2-----------|-------4-----------|-------4-----------|
Gb|---2---------------|---2---------------|---4---------------|---4---------------|
Db|-------------------|-------------------|-------------------|-------------------|
Ab|-------------------|-------------------|-------------------|-------------------|
Eb|-------------------|-------------------|-------------------|-------------------|

Do you have an opinion?
A mind of your own?
I thought you were special
I thought you should know
But I’ve run out of patience
I couldn’t care less [B/D#]

I…
I…

For the AHH AHH AHH part you can play this riff B

Fill Riff B


Eb|--------------------------------|
Bb|---7---10---9---7---5---7---9---|
Gb|--------------------------------|
Db|--------------------------------|
Ab|--------------------------------|
Eb|--------------------------------|

Do you have an opinion?
A mind of your own?
I thought you were special
I thought you should know

I used to amuse you
I knew that I’d use you
Now you’re here and begging for a chance
But there’s no way in hell I’d take you back

Do you have an opinion?
A mind of your own?
I thought you were special
I thought you should know
But I’ve run out of patience
I’ve run out of comments
I’m tired of the violence
I couldn’t care less [B/D#]

I’m looking for a new
I’m looking for a new
I’m looking for a new
I’m looking for a new

For the Ahh Ahh parts you can play fill riff C

Fill Riff C


Eb|------------------------------|
Bb|---5---4----7---7---5---------|
Gb|------------------------------|
Db|------------------------------|
Ab|------------------------------|
Eb|------------------------------|

We were the talk of the town
We were the talk of the town
We were the talk of the town
We were the talk of the town

I thought you were special
I thought you were special
I thought you were special
I thought you were special

To play the this songs, including Special by Garbage by ukulele, the most important basic ukulele chords to learn are C chord, D chord, G chord, and Em chord.
These set you up to play a many of songs, and each of them is easy to master.

If you are looking for Can’t Cry These Tears ukulele chords, you’ve visit to the best site.
You can play versatile instrument Can’t Cry These Tears using ukulele or guitar.
This song by Garbage can also be played by that instruments.
=

Can’t Cry These Tears chords has rhythm and included in beautifulgarbage (2001) album.
You can also get other musical genres, including jazz ukulele chords, country music ukulele chords, pop ukulele chords, world music ukulele chords, and rock ukulele chords here.

Can’t Cry These Tears by Garbage Ukulele Chords


Band: Garbage
Song Title: Can’t Cry These Tears
Tuning: Normal

This is an interesting song. It has some werid chord fingerins. I will note these
chord fingerings like this DI, BMI and so one. For beginners I will add in open chord fingerings.

The 5th chords on this song are on the fourth string and kind of high.

Chords Used For This Song


E|---0-----0-----0-----0-----3-----3-----0-----1-----1-----3-----X---|
B|---2-----1-----2-----1-----5-----5-----1-----1-----1-----3-----6---|
G|---2-----2-----0-----0-----5-----3-----3-----2-----2-----0-----7---|
D|---2-----2-----2-----2-----5-----5-----2-----3-----3-----0-----7---|
A|---0-----0-----0-----3-----3-----3-----3-----X-----3-----2-----X---|
E|---X-----X-----X-----X-----X-----X-----X-----X-----1-----3-----6---|

D D5 G5 F5 DI BmI GI AI Gm7 Cm6 Ebmaj7


E|---2-----X------X-----------10-----7-----7-----9-----3-----X-----X----|
B|---3-----X------X-----------10-----7-----8-----10----3-----8-----11---|
G|---2-----14-----7-----5-----11-----7-----7-----9-----3-----8-----12---|
D|---0-----12-----5-----3-----X------X-----X-----X-----3-----7-----12---|
A|---X-----X------X-----------X------X-----X-----X-----5-----X-----X----|
E|---X-----X------X-----------X------X-----X-----X-----3-----8-----11---|

Intro / Chorus:

I just don’t care anymore

I’ve reached the end of the road

I just don’t care anymore

Won’t cry these tears anymore

Verse 1:

Can’t find it in the bible

Can’t find it on tv

Can’t find it in diamonds

There’s something inside me that just won’t allow me to

Can’t find it in music

Can’t find it in my soul

Can’t find it in chocolate

Oh babe i can’t hide it

I can’t even find it in you

Chorus:

I just don’t care anymore

I’ve reached the end of the road

I just don’t care anymore

Won’t cry these tears anymore

Verse 2:

There’s no way she can kiss you

The way that i do

I heard that you miss me

Oh you should be careful of who you keep talking to

Long nights without you have taught me to be strong

I’ve cut all my losses

Think no more about it cause i couldn’t find it in you

Change Up:

This part gets kind of crazy it has a few riffs. I will list as Riff A B C and so on.
You can strum the chords or play the riffs. During the Change up there are two very distictive
guitar parts They are noted below. Listen to song for changes.


E|---------------------|-------------------|-10-10-10-10-10-10-|
B|---10-10-10-10-10-10-|-11-11-11-11-11-11-|--8-8-8-8-8-8-8-8--|
G|---7--7--7--7--7--7--|-10-10-10-10-10-10-|-------------------|
D|---------------------|-------------------|-------------------|
A|---------------------|-------------------|-------------------|
E|---------------------|-------------------|-------------------|
E|-8--8--8--8--8----|-------------|-------------|-------------|
B|-10-10-10-10-8-10-|-------------|-------------|-3-3-3-3-3-3-|
G|------------------|-2-2-2-2-2-2-|-3-3-3-3-3-3-|-3-3-3-3-3-3-|
D|------------------|-3-3-3-3-3-3-|-3-3-3-3-3-3-|-------------|
A|------------------|-------------|-------------|-------------|
E|------------------|-------------|-------------|-------------|
E|-------------|-10-10-10-10-10-10-|-------------------|
B|-1-1-1-1-1-1-|-10-10-10-10-10-10-|-11-11-11-11-11-11-|
G|-2-2-2-2-2-2-|-------------------|-10-10-10-10-10-10-|
D|-------------|-------------------|-------------------|
A|-------------|-------------------|-------------------|
E|-------------|-------------------|-------------------|
E|-------------------|-------------------|-------------|
B|-11-11-11-11-11-11-|-14-14-14-14-14-14-|-------------|
G|-12-12-12-12-12-12-|-14-14-14-14-14-14-|-3-3-3-3-3-3-|
D|-------------------|-------------------|-5-5-5-5-5-5-|
A|-------------------|-------------------|-------------|
E|-------------------|-------------------|-------------|
E|-------------|-5-5-5-5-5-5-|
B|-2-2-2-2-2-2-|-5-5-5-5-5-5-|
G|-0-0-0-0-0-0-|-2-2-2-2-2-2-|
D|-------------|-------------|
A|-------------|-------------|
E|-------------|-------------|

There was a time

I thought of dyin

If you should ever leave me high and dry

Now you don’t want me any more

It’s time to settle the score

Interlude:

/ Slide UP
Slide Down
> Hammer On


E|---10/1210---7-----------10/1210---7-----------|----------------------|
B|---10/1210---7-----------10/1210---7-----------|----------7-----------|
G|------------------9---7------------------9---7---|---7>-9---7-----------|
D|------------------9---7------------------9---7---|---7>-9-------9---7---|
A|-------------------------------------------------|--------------9---7---|
E|-------------------------------------------------|----------------------|
E|---10/1210---7-----------10/1210---7-----------|
B|---10/1210---7-----------10/1210---7-----------|
G|------------------9---7------------------9---7---|
D|------------------9---7------------------9---7---|
A|-------------------------------------------------|
E|-------------------------------------------------|
E|---10/1210---7-----------10/1210---7-----------|-------------------------------------|
B|---10/1210---7-----------10/1210---7-----------|---------7-------7-------7-------7---|
G|------------------9---7------------------9---7---|---7>-9--7---9---7---9---7---9---7---|
D|------------------9---7------------------9---7---|---7>-9--------------------------7---|
A|-------------------------------------------------|-------------------------------------|
E|-------------------------------------------------|-------------------------------------|
E|---10/1210---7-----------10/1210---7-----------|---10/1210---7-----------10/1210---7-----------|
B|---10/1210---7-----------10/1210---7-----------|---10/1210---7-----------10/1210---7-----------|
G|------------------9---7------------------9---7---|------------------9---7------------------9---7---|
D|------------------9---7------------------9---7---|------------------9---7------------------9---7---|
A|-------------------------------------------------|-------------------------------------------------|
E|-------------------------------------------------|-------------------------------------------------|

Outro Chorus:

I just don’t care anymore

I’ve reached the end of my tether

I’ve torn all your letters up

I just don’t care anymore

Won’t cry these tears anymore

I just don’t care anymore

I’ve reached the end of my rope

And it’s time that i told you so

I just don’t care anymore

Won’t cry these [G tears anymore

To play the most songs, including Can’t Cry These Tears by Garbage by ukulele, the most crucial basic ukulele chords to learn are C chord, D chord, G chord, and Em chord.
These set you up to play a a lot of songs, and each of them is easy to learn.

If you are searching for Bleed Like Me ukulele chords, you already visit to the right site.
You can play versatile instrument Bleed Like Me using ukulele or guitar.
This song by Garbage can also be played by that instruments.
=

Bleed Like Me chords has rhythm and included in Bleed Like Me (2005) album.
You can also get another musical genres, including jazz ukulele chords, country music ukulele chords, pop ukulele chords, world music ukulele chords, and rock ukulele chords here.

Bleed Like Me by Garbage Ukulele Chords


#

Arstist/Group: Garbage

Tuning: Standard

Avalanche is sullen and too thin,
She starves herself to rid herself of sin,
And the kick is so divine when she sees bones beneath her skin,
And she says “hey baby can you bleed like me?
C’mon baby can you bleed like me?”

Chris is all dressed up and acting coy,
Painted like a brand new Christmas toy,
He’s trying to figure out if he’s a girl or he’s a boy,
He says “hey baby can you bleed like me?
C’mon baby can you bleed like me?”

Doodles takes dad’s scissors to her skin,
And when she does relief comes setting in
While she hides the scars she’s making underneath her pretty clothes
She sings “hey baby can you bleed like me?
C’mon baby can you bleed like me?”

Therapy is Speedy’s brand new drug,
Dancing with the devil’s past has never been too fun,
It’s better off than trying to take a bullet from a gun
And she cries “hey baby can you bleed like me?
C’mon baby can you bleed like me?”

JT gets all fked up in some karaoke bar,
After two drinks he’s a loser, after three drinks he’s a star,
A D pause
Getting all nostalgic as he sings “I Will Survive”

Hey baby can you bleed like me?
C’mon baby can you bleed like me?
Hey baby can you bleed like me?
C’mon baby can you bleed like me?

You should see my scars
You should see my scars

Try to comprehend that which you’ll never comprehend
Try to comprehend that which you’ll never comprehend
Just try to comprehend that which you’ll never comprehend
Try to comprehend that which you’ll never comprehend

La la la la
La la la la
La la la la


To play the this songs, including Bleed Like Me by Garbage by ukulele, the most important basic ukulele chords to learn are C chord, D chord, G chord, and Em chord.
These set you up to play a a lot of songs, and each of them is easy to master.

If you are searching for A Stroke of Luck ukulele chords, you already visit to the right place.
You can play versatile instrument A Stroke of Luck using ukulele or guitar.
This song by Garbage can also be played by that instruments.
=

A Stroke of Luck chords has rhythm and included in Garbage (1995) album.
You can also find another musical genres, including jazz ukulele chords, country music ukulele chords, pop ukulele chords, world music ukulele chords, and rock ukulele chords here.

A Stroke of Luck by Garbage Ukulele Chords


Song Title: A Stroke Of Luck
Tuning: Normal

Intro Notes:


E|-15----------18----------|
B|----14-15-------14-15----|
G|-------------------------|
D|-------------------------|
A|-------------------------|
E|-------------------------|

Fill Riff A


E|-15-------------|
B|----14-15-------|
G|----------12----|
D|----------------|
A|----------------|
E|----------------|

Verse 1:
Hanging by threads of palest silver
I could have stayed that way forever
Bad blood and ghosts wrapped tight around me
Nothing could ever seem to touch me (Fill Riff A)
I lose what I love most (Fill Riff A)
Did you know I was lost until you found me? (Fill Riff A)

Chorus:
Guitar I: Plays Chords
Guitar II: Plays Riff

A stroke of luck or a gift from God?
Hand of fate or devil’s claws?
From below or saints above?
You came to me
Here comes the cold again
I feel it closing in
It’s falling down and all around me falling

Guitar II:


E|-----------------------|
B|---3----3----3---------|
G|-0---------0----2b3r2--|
D|------3----------------|
A|-----------------------|
E|-----------------------|

Verse 2:
You say that you’ll be there to catch me
Or will you only try to trap me (Fill Riff A)
These are the rules I make (Fill Riff A)
Our chains were meant to break
You’ll never change me
Here comes the cold again
I feel it closing in
You’re falling down and all around me falling

Chorus 2:
A stroke of luck or a gift from God?
Hand of fate or devil’s claws?
From below or saints above?
You come to me now

There is an instrumental interlude here you can play the (Fill Riff A) & (Fill Riff B).

Bridge:

Fill Riff B


E|-1------3-----------|
B|-----------3--------|
G|--------------------|
D|--------------------|
A|--------------------|
E|--------------------|

Don’t ask me why
Don’t even try

Third Chorus: Play it the same as the first chorus

For the outro Play the intro lick


E|-15----------18----------|
B|----14-15-------14-15----|
G|-------------------------|
D|-------------------------|
A|-------------------------|
E|-------------------------|

Falling, falling
Falling, falling
Falling, falling

To play the most songs, including A Stroke of Luck by Garbage by ukulele, the most crucial basic ukulele chords to learn are C chord, D chord, G chord, and Em chord.
These set you up to play a a lot of songs, and each of them is easy to learn.

If you are looking for Empty ukulele chords, you have visit to the best place.
You can play versatile instrument Empty using ukulele or guitar.
This song by Garbage can also be played by that instruments.
=

Empty chords has rhythm and included in Strange Little Birds (2016) album.
You can also find other musical genres, including jazz ukulele chords, country music ukulele chords, pop ukulele chords, world music ukulele chords, and rock ukulele chords here.

Empty by Garbage Ukulele Chords


No Capo

e|—————————————————————————–|
B|—————————————————————————–|
G|-12-14-12——-12-14-12——–12-14-12—12-14-12———12-14-12———|
D|———12-12———–12-12———————–12-12———–12-12—|
A|—————————————————————————–|
E|—————————————————————————–|
e|————————|————————-|
B|—-12——————|—-12——————-|
G|-11—-14-11-12-14-11—|-11—-14-11-12-14-11—-|
D|————————|————————-|
A|————————|————————-|
E|————————|————————-|

[Verse 1]

I’ve been feeling so frustrated
I’ll never be as great as
I want to be
Everyone that I run into
The ones you always seem so into
What’s wrong with me?

They all seem to know exactly
What it is they want, they pass me
They smile as they go
So I work at staying patient
Good things come to those that wait
Or so they say

I’m so empty
You’re all I’m thinking about, about
Oh oh, about, about
Oh oh oh, about, about
Oh oh oh, about, about

[Verse 2]

I get tired of trying
Ideas die on the vine
And I feel like a fake
I lie awake believing
That somehow I keep failing
I rail and I ache
At the monsters and the demons
I’ve wrestled with for eons
And I want to destroy

I’m so empty
You’re all I talk about
Oh oh-out
You’re all I talk about

Every day, every hour of the night
You’re all I think about
Every day, every hour of the night
You’re all I dream about
Every day, every hour of the night
You’re all I think about
You’re all I think about

I’m so empty
I’m so empty
I’m so empty
You’re all I’m thinking about
Oh oh oh, about, about
Oh oh oh, about, about
I’m so empty

To play the this songs, including Empty by Garbage by ukulele, the most important basic ukulele chords to learn are C chord, D chord, G chord, and Em chord.
These set you up to play a a lot of songs, and each of them is easy to learn.

If you are searching for Even Though Our Love Is Doomed ukulele chords, you’ve visit to the right site.
You can play versatile instrument Even Though Our Love Is Doomed using ukulele or guitar.
This song by Garbage can also be played by that instruments.
=

Even Though Our Love Is Doomed chords has rhythm and included in Strange Little Birds (2016) album.
You can also find other musical genres, including jazz ukulele chords, country music ukulele chords, pop ukulele chords, world music ukulele chords, and rock ukulele chords here.

Even Though Our Love Is Doomed by Garbage Ukulele Chords


o Capo

Tune Drop D


e|——1——————|————————-|
B|——1——————|————————-|
G|——2——————|————————-|
D|——2——————|————————-|
A|——1——————|————————-|
D|——x——————|————————-|

e|———————————–|
B|———————————–|
G|———————————–|
D|—0——3——0—3-0——-2—|
A|—–3–0——1—1—–0-4-0—4-|
D|-0———————————| x 2
e|———————————–|
B|———————————–|
G|———————————–|
D|—0——3—0——————–|
A|—–3–0————————–|
D|-0———————————|


I’m getting esperate
Desperate for a revolution
Some kind of spark
Some kind of connection
In these dangerous days
Come a little bit closer
I need to understand

[Pre-Chorus]
Why we kill the things we love the most
Kill the things we love
Kill the things we love the most
Why we kill the things we love the most
Kill the things we love
Kill the things we love the most
But they don’t burn like we do
They don’t burn like we do


And even though our love is doomed
And even though we’re all messed up
We’re still waiting for tomorrow
We’re still aching for tomorrow
And even though our love is doomed
And even though we’re all messed up
We’re still waiting for tomorrow
We’re still aching for tomorrow

e|———————————–|
B|———————————–|
G|———————————–|
D|—0——3——0—3-0——-2—|
A|—–3–0——1—1—–0-4-0—4-|
D|-0———————————| x 2


Don’t wanna be dead to life
Don’t wanna be dulled to extinction
Don’t wanna be lost in dreams
Don’t wanna be caught sleepwalking
Maybe I should break the chain
Maybe I should break the connection
Such strange little birds
Devoured by our obsessions

[Pre-Chorus]
Can you love me for what I’ve become
Love me for what I
Said that I would not become
Can you love me for what I’ve become
Love me for what I
Said that I would not become
Cause they don’t burn like I do
They don’t burn like I do


And even though your love is cruel
And even though our stars are crossed
We’re still waiting for tomorrow
We’re still aching for tomorrow
And even though our love is doomed
And even though we’re all messed up
You’re the only thing worth fighting for
You’re the only thing worth dying for


And even though our love is doomed
Even though our love is doomed
Even though our love is doomed
Even though our love is doomed
Even though our love is doomed
Even though our love is doomed
Even though our love is doomed
You’re the only thing worth fighting for
You’re the only thing worth dying for

e|———————————–|
B|———————————–|
G|———————————–|
D|—0——3————————|
A|—–3–0————————–|
D|-0———————————|

To play the most songs, including Even Though Our Love Is Doomed by Garbage by ukulele, the most crucial basic ukulele chords to learn are C chord, D chord, G chord, and Em chord.
These set you up to play a a lot of songs, and each of them is easy to master.

If you are searching for Breaking Up the Girl ukulele chords, you’ve visit to the right site.
You can play versatile instrument Breaking Up the Girl using ukulele or guitar.
This song by Garbage can also be played by that instruments.
=

Breaking Up the Girl chords has rhythm and included in beautifulgarbage (2001) album.
You can also get another musical genres, including jazz ukulele chords, country music ukulele chords, pop ukulele chords, world music ukulele chords, and rock ukulele chords here.

Breaking Up the Girl by Garbage Ukulele Chords


——————————————————————————-

BREAKING UP THE GIRL – Garbage

——————————————————————————-

Tuning: Standard

Notes: I used their acoustic performance as a guide and it sounds pretty close. 🙂

Intro: D-E D-E

Verse:

In a modern culture,
My friend you must be careful,
They’ve a million,
Ways to kill you

In this dangerous world,
There’s an art to growing old,
Taking chance[D-E]s,
Magic Happen[D-F]s

Chorus:
One mistake’s all it takes,
And your life has come undone,
Walk away cause you’re breaking up the girl
It’s a drag I know it’s hard,
But you’re tearing her apart,
Walk away cause you’re breaking up the girl

Verse:
I am afraid that there’s much to be afraid of
Here [D-E]today and gone tom[D-E]orrow

Don’t end up in the gutter
Just like the one before
You’re just the [D-E]same
You’re such a [D-F]loser

Chorus:
One mistake’s all it takes,
And your life has come undone,
Walk away cause you’re breaking up the girl
It’s a drag I know it’s hard,
But you’re tearing her apart,
Walk away cause you’re breaking up the girl

Gotta let it go because you’re [D-E]breaking up, [D-E]girl, [D-E]girl..[D-E].

Chorus: (shift one fret higher)
One mistake’s all it takes,
And your life has come undone,
Walk away cause you’re breaking up the girl
It’s a drag I know it’s hard,
But you’re tearing her apart,
Walk away cause you’re breaking up the girl

Breaking up the gir[E-F#]l, [E-F#]girl, [E-F#]girl

To play the most songs, including Breaking Up the Girl by Garbage by ukulele, the most important basic ukulele chords to learn are C chord, D chord, G chord, and Em chord.
These set you up to play a a lot of songs, and each of them is easy to master.

If you are searching for Blackout ukulele chords, you already visit to the right place.
You can play versatile instrument Blackout using ukulele or guitar.
This song by Garbage can also be played by that instruments.
=

Blackout chords has rhythm and included in Strange Little Birds (2016) album.
You can also find other musical style, including jazz ukulele chords, country music ukulele chords, pop ukulele chords, world music ukulele chords, and rock ukulele chords here.

Blackout by Garbage Ukulele Chords



Gtr 1 – Distortion

C#|———–|
G#|———–|
E |4-5–2-4–5|
B |2-2–0-0–5|
F#|———-3|
C#|———–|


Gtr 1 – Distortion
Palm mute the whole thing

C#|———————————————————————–|
G#|4-4-4-4-4b5-4b5-4b5-4b5-5-5-5-5-5-5-5-5——————————–|
E |—————————————-4-4-4-4-4-4-4-4-5-5-5-5-5-5-5-5|
B |———————————————————————–|
F#|———————————————————————–|
C#|———————————————————————–|

Gtr 2 – Clean
Played with reverb

C#|-0—0-0—3—3-3——————-|
G#|———————0–0-0—0—0-0|
E |———0–0————————|
B |2–2———————————|
F#|——————-3–3—–3—3—-|
C#|————————————-|


Gtr 1 – Distortion
Strum accordingly

C#|———————————————————————|
G#|7-7-7-7-7———–7-7-7-7-7———–7-7-7-7-7——————–|
E |6-6-6-6-6-9-9-9-9-9-6-6-6-6-6-9-9-9-9-9-6-6-6-6-6-9-9-9-9-9-6-6-6-6-6|
B |4-4-4-4-4-9-9-9-9-9-4-4-4-4-4-9-9-9-9-9-4-4-4-4-4-9-9-9-9-9-6-6-6-6-6|
F#|———-7-7-7-7-7———–7-7-7-7-7———–7-7-7-7-7-4-4-4-4-4|
C#|———————————————————————|
C#|—————————————–|
G#|7-7-7-7———————————-|
E |6-6-6-6-6-9-9-9-9-9-6-6-6-6-6/7-7-7-7-7-7|
B |4-4-4-4-4-9-9-9-9-9-6-6-6-6-6/7-7-7-7-7-7|
F#|———-7-7-7-7-7-4-4-4-4-4/5-5-5-5-5-5|
C#|—————————————–|

Gtr 2 – Distortion

C#|——————————————————————————–|
G#|–7-5—7-5—7-5——7-5—-7-5—7-5—–7-5—-7-5—7-5—–7-6—7-6—7-6|
E |6—–6—–6——–6——6—–6——-6——6—–6——-6—–6—–6—-|
B |——————————————————————————–|
F#|——————————————————————————–|
C#|——————————————————————————–|

[Post Chorus]
Gtr 1 – Distortion
Repeat Twice

C#|——————————————————————|
G#|——————-12-12-12-12-12b13-12b13-12b13-12b13-12b13-12-12|
E |4-5–2-4–5——————————————————-|
B |2-2–0-0–5——————————————————-|
F#|———-3——————————————————-|
C#|——————————————————————|


Gtr 1 – Distortion
Repeat 3 times and then go to the 2nd part. Repeat the whole thing twice.

C#|———————–|
G#|———————–|
E |———————–|
B |8–5/8–5/8–5/11-11-11|
F#|6–3/6–3/6–3/9–9–9-|
C#|———————–|
C#|——————————-|
G#|——————————-|
E |——————————-|
B |6-6-6-6-6-6-6-6-6-7-7-7-7-7-7-7|
F#|4-4-4-4-4-4-4-4-4-5-5-5-5-5-5-5|
C#|——————————-|

[Post Chorus]
Gtr 1 – Distortion
Repeat Twice

C#|———————————————————|
G#|———————————————————|
E |4-5–2-4–5———————————————-|
B |2-2–0-0–5——–9-9-9-9-9-9b10-9b10-9b10-9b10-9b10-9-9|
F#|———-3———————————————-|
C#|———————————————————|


Gtr 1 – Distortion
Repeat 4 times

C#|——————————————————————|
G#|——————-12-12-12-12-12b13-12b13-12b13-12b13-12b13-12-12|
E |4-5–2-4–5——————————————————-|
B |2-2–0-0–5——————————————————-|
F#|———-3——————————————————-|
C#|——————————————————————|

Gtr 2 – Distortion
Repeat 3 times

C#|———————————————————|
G#|———————————————————|
E |4-5–2-4–5———————————————-|
B |2-2–0-0–5——–9-9-9-9-9-9b10-9b10-9b10-9b10-9b10-9-9|
F#|———-3———————————————-|
C#|———————————————————|

To play the most songs, including Blackout by Garbage by ukulele, the most crucial basic ukulele chords to learn are C chord, D chord, G chord, and Em chord.
These set you up to play a ton of songs, and each of them is easy to master.

If you are searching for Beloved Freak ukulele chords, you already come to the right place.
You can play versatile instrument Beloved Freak using ukulele or guitar.
This song by Garbage can also be played by that instruments.
=

Beloved Freak chords has rhythm and included in Not Your Kind of People (2012) album.
You can also find other musical style, including jazz ukulele chords, country music ukulele chords, pop ukulele chords, world music ukulele chords, and rock ukulele chords here.

Beloved Freak by Garbage Ukulele Chords


You’re not certain when you feel hurt
Get violent when you deal
With how the world drags you along
You’re not alone

Nothing good was ever free
No one gets it, no one sees
So here you stand, beloved freak
You’re not alone
You’re not alone
You’re not alone
Sometimes we get so tired and weak
We lose the sky beneath our feet
You’re not alone

Every comet throws an arc
And scars our vision ‘cross the dark
When we’re gone we will remain
You’re not alone

People lie and people steal
They misinterpret how you feel
And so we doubt and we conceal
You’re not alone
Don’t worry for me
Just think of yourself, think of yourself
Don’t worry for me
Just think of yourself, think of yourself

When we’re gone we will remain
When we’re gone we will remain
When we’re gone we will remain
When we’re gone we will remain

So here you stand, beloved freak
The world is at your feet
Here you stand, beloved freak
The world is at your feet

This little light of mine
I’m going to let it shine
This little light of mine

I’m going to let it shine
This little light of mine

I’m going to let it shine
Let it shine, let it shine, let it shine

And so you stand, beloved freak
The world is lying at your feet
There you stand, beloved freak
Let it shine, let it shine, let it shine

To play the this songs, including Beloved Freak by Garbage by ukulele, the most important basic ukulele chords to learn are C chord, D chord, G chord, and Em chord.
These set you up to play a many of songs, and each of them is easy to learn.